zvonko bogdan - svirci moji verzija 2

Poslao: Andrija1977 | Komentara: 0 | Glasova: 0 | Ocjena: x | Print
Pesma: Svirci moji
Izvodjac: Zvonko Bogdan
Album: Ko te ima, taj te nema (2007)
Transkripcija: Andrija1977
E-mail: smitandrija@yahoo.com

Verzija pesme na albumu
https://www.youtube.com/watch?v=Sb5OPO8FuH8

Strofa 1

   C    C7     Dm    Dm7   G       Bdim7     C  C/G
e|-3----0----|-5-----5---|-3-----------------0-------|
B|-1----1----|-6-----6---|-3-----------3-----1---1---|
G|-0----3----|-7-----5---|-0-----------1-----0---0---|
D|-2----2----|-7-----7---|-0-----------3-----2---2---|
A|-3----3----|-5-----5---|-2--------2--2-----3---x---|
E|-----------|-----------|-3---------------------3---|
 Svirci moji, jos je rano,  tek je  po-noc   tu.

 C    C7    Dm   Dm7   G    Bdim7  C     C  G7
Svirajte mi  polagano,  uspavajte  nju.

       (C#dim7/E)
    C     Edim7   F    F       G           G/B  C   C/G  B/F A7
e|--0-------------1----1----|--3---------------------3------------|
B|--1-------5-----1----1----|--3----------------1----1---3---2----|
G|--2-------3-----2----2----|--0------------0---0----0---3---0----|
D|--2-------5-----3----3----|--0------------0---2---(2)--3---2----|
A|--3-------4-----3----3----|--2---------0--2---3---(3)------0----|
E|-------0-(0)----1----1----|--3----------------------------------|
    Propio sam    tri imanja,  jos se  smi..je  iz  co...ka..nja,

C    C7    Dm     Dm7   G      Bdim7  C     C G7
Pustite je neka spava,  lijepa je u   snu
C    Edim7  F     F     G              C  C/G  B/F  A7
Propio sam  tri imanja,  jos se  smije iz co...ka...nja,
C    C7    Dm     Dm7   G      Bdim7  C     C/G
Pustite je neka spava,  lijepa je u   snu

Forspil

Strofa 2

  C    C7    Dm      Dm7  G        Bdim7   C   C/G
Svirci moji,  jos je rano, tek je proslo   tri.
 C     C7     Dm     Dm7   G    Bdim7  C   C  G7
Jos je noc pod  jorgovanom, ona tamo  spi
C   Edim7  F     F     G           C    C/G  B/F A7
Izludi me  kako dise,  jorgovanom  sve  mi...ri..se,
C    C7    Dm     Dm7   G       Bdim7  C     C G7
Nece biti   nikad vise,  to sto nocas  bi...
C   Edim7  F     F     G           C    C/G  B/F A7
Izludi me  kako dise,  jorgovanom  sve  mi...ri..se,
C    C7    Dm     Dm7   G       Bdim7  C     C/G
Nece biti   nikad vise,  to sto nocas  bi...

Strofa 3

  C    C7   Dm      Dm7  G    Bdim7  C   C/G
Svirci moji, valja poci,  i noc ima  kraj.
  C  C7   Dm      Dm7  G   Bdim7  C   C/G
Sprzice me  njene oci,  ubice me sjaj.
C       Edim7  F     F     G            C   C/G  B/F A7
Dan se radja,  jutro rudi,  budite je,  nek mi   su..di.
C    C7    Dm        Dm7   G    Bdim7  C    C G7
Kazu zorom  grijesni ljudi  odlaze u   raj
C       Edim7  F     F     G            C   C/G  B/F A7
Dan se radja,  jutro rudi,  budite je,  nek mi   su..di.
C    C7    Dm        Dm7   G    Bdim7  C    C/G
Kazu zorom  grijesni ljudi  odlaze u   raj

Outro

  C    C7    Dm      Dm7   G        Bdim7    C
Svirci moji,   valja poci,  jer sve ima      kraj

-------------------------------------------------
Verzija pesme kada je Zvonko Bogdan izvodi uzivo
https://www.youtube.com/watch?v=rlIPlxgli4g

Strofa 1

   C    C7/E   F     Dm7   G       Bdim7  C  C/G
e|-3----0---|--1-----1---|-3--------------0-------|
B|-1----1---|--1-----1---|-3----------3---1---1---|
G|-0----3---|--2-----2---|-0----------1---0---0---|
D|-2----2---|--3-----0---|-0----------3---2---2---|
A|-3----3---|--3---------|-2-------2--2---3---x---|
E|------0---|------------|-3------------------3---|
 Svirci moji, jos je rano, tek je po-noc  tu.

 C    C7/E   F    Dm7   G    Bdim7  C  C/G
Svirajte  mi  polagano,  uspavajte  nju.

                     (Ddim7/F)
    Am      Am    E7  Fdim7      G           G/B  C   C/G  B/F A7
e|--0-------0-----0------1----|------------------------3------------|
B|--1-------1-----0------0----|--3----------------1----1---3---2----|
G|--2-------2-----1------1----|--0------------0---0----0---3---0----|
D|--2-------2-----0------0----|--0------------0---2---(2)--3---2----|
A|--0-------0-----2-----------|--2---------0--2---3---(3)------0----|
E|----------------0-----1-----|--3----------------------------------|
    Propi...o sam tri imanja,    jos se   smi-je  iz   co..ka..nja,

C    C7    F      Dm7   G       Bdim7  C   C/G
Pustite je  neka spava,  lijepa je u   snu
Am   Am    E7     Fdim7  G           C   C/G  B/F   A7
Propio sam sto  lanaca,  i  cetiri   ko..nja  vra...nca
C    C7    F      Dm7   G       Bdim7  C   C/G
Pustite je  neka spava,  lijepa je u   snu

Forspil

Strofa 2

  C    C7/E  F       Dm7   G        Bdim7  C  C/G
Svirci moji,  jos je rano, tek je proslo   tri.
  C    C7/E   F      Dm7   G     Bdim7  C
Jos je noc pod  jorgovanom, ona tamo    spi
Am  Am    E7     Fdim7  G            C   C/G  B/F  A7
Izludi me  kako dise,   jorgovanom   sve mi...ri...se,
C     C7/E   F       Dm7    G       Bdim7  C  C/G
Nece biti     nikad vise,   to sto nocas   bi...
Am  Am    E7     Fdim7  G            C   C/G  B/F  A7
Izludi me  kako dise,   jorgovanom   sve mi...ri...se,
C     C7/E   F       Dm7    G       Bdim7  C  C/G
Nece biti     nikad vise,   to sto nocas   bi...

Strofa 3

C      C7/E   F      Dm7  G      Bdim7  C    C/G
Svirci moji,  valja poci,  i noc ima    kraj.
C    C7/E   F      Dm7  G   Bdim7  C
Sprzice me  njene oci,  ubice me   sjaj.
Am     Am     E7    Fdim7  G           C   C/G  B/F  A7
Dan se radja, jutro rudi,  budite je,  nek mi   su...di.
C     C7/E   F        Dm7    G     Bdim7  C  C/G
Kazu zorom   grijesni ljudi    odlaze u   raj
Am     Am     E7    Fdim7  G           C   C/G  B/F  A7
Dan se radja, jutro rudi,  budite je,  nek mi   su...di.
C     C7/E   F        Dm7     G     Bdim7  C  C/G
Kazu zorom   grijesni ljudi    odlaze u   raj

Outro

C      C7/E   F       Dm7   G       Bdim7     C
Svirci moji,   valja poci,   jer sve ima      kraj

-------------------------------------------------------------------------

Forspil tema (za tamburicu, svirano na gitari)

e|-/12-12-12-12--10---------|----/10-10---------------------------|
B|-----------------13-12-13-|-----------13-12-12h13x--------------|
G|--------------------------|-----------------------12x--10x--9---|
D|--------------------------|-------------------------------------|
A|--------------------------|-------------------------------------|
E|--------------------------|-------------------------------------|

        (C#dim7/E)
    C     Edim7   F    F       G           G/B  C   C/G  B/F A7 (album verzija)
e|--0-------------1----1----|------------------------3-------0----|
B|--1-------5-----1----1----|--3----------------1----1---3---2----|
G|--2-------3-----2----2----|--0------------0---0----0---3---0----|
D|--2-------5-----3----3----|--0------------0---2--------3---2----|
A|--3-------4-----3----3----|--2---------0--2---3------------0----|
E|-------0--0-----1----1----|--3----------------------------------|

                     (Ddim7/F)
    Am      Am    E7   Fdim7   G           G/B  C   C/G  B/F A7 (uzivo izvodjenje)
e|--0-------0-----0----1----|------------------------3-------0----|
B|--1-------1-----0----0----|--3----------------1----1---3---2----|
G|--2-------2-----1----1----|--0------------0---0----0---3---0----|
D|--2-------2-----0----0----|--0------------0---2--------3---2----|
A|--0-------0-----2---------|--2---------0--2---3------------0----|
E|----------------0----1----|--3----------------------------------|


   C    C7/E  F     Dm7   G       Bdim7  C  C/G
e|----------|-4p5-5-----|-------------------------|
B|-7h8-8----|-------6---|-------------------------|
G|------9---|--------7--|-4h5h7-5-4-/7---5--------|
D|-------10-|-----------|-------------------------|
A|----------|-----------|-------------------------|
E|----------|-----------|-------------------------|

   C    C7/E  F     Dm7   G       Bdim7  C  C/G
e|-3----0---|-1-----1---|-3--------------0-------|
B|-1----1---|-1-----1---|-3----------3---1---1---|
G|-0----3---|-2-----2---|-0----------1---0---0---|
D|-2----2---|-3-----0---|-0----------3---2---2---|
A|-3----3---|-3---------|-2-------2--2---3---x---|
E|------0---|-----------|-3------------------3---|

---------------------------------------------------------------------------
Napomena za Edim7 (C#dim7/E) i Fdim7 (Ddim7/E)

Oznaceni Edim7 vise odgovara inverziji C#dim7 sa bas notom E, ali posto se note
"umanjenih sedmica" (dim7) ponavljaju na svaka 3 praga i samo bas nota teorijski
odredjuje koji je akord, napisao sam Edim7 = C#dim7 = Gdim7...
U ostalim pesmaricama uglavnom pisu akord E7 na tom mestu.

Isto vazi i za oznaceni Fdim7 u akordima refrena za uzivo izvodjenje
Fdim7 (Ddim7/F)
Poslao: Andrija1977 | Komentara: 0 | Glasova: 0 | Ocjena: x | Print