vojvodjanski blues band - majk

Poslao: Andrija1977 | Komentara: 0 | Glasova: 0 | Ocjena: x | Print
Pesma: Majk
Izvodjac: Vojvodjanski blues band
Album: Seceru moj (1986)
Transkripcija: Andrija1977
E-mail: smitandrija@yahoo.com

Pesmu sam skidao po sviranju grupe Sinobusi na koncertu "Novosadska kultura secanja",
ali akordi su isti i u originalu.

Strofa
D                             G                                   D
Ajd dodaj uze, vezi sajlu sad, stavi teg od 25, i digni sve u visinu,
D     A7                 D                  A7                    D
Da ti radim, ne lezim badava, jos jedan za ekstra, i cujem, oh yeah!
D                                    G                                     D
Sunce je visoko, i mi smo eto s njim, a ljudi dole prolaze i provode svoj dan,
D           A7                  D                 A7                  D     D7
3 cvora nas drze, al vetar je blag, jos jedan za ekstra, i cujem, oh yeah!


Refren

D7         G                           D
    I onda slozno uhvati ritam i drzi Majka,

   D
e|-----------------------------------------|
B|---7----6----5----3----5----6----7-------|
G|-----------------------------------------|
D|-/7-7--6-6--5-5--4-4--5-5--6-6--7-7------|
A|-----------------------------------------|
E|-----------------------------------------|

    G                                D
a Mira strepi i plasi se za svog coveka,

   D
e|---14-----13-----12-----10-----12-----13------14-----|
B|-----------------------------------------------------|
G|-/14-14--13-13--12-12--11-11--12-12--13-13--14--14---|
D|-----------------------------------------------------|
A|-----------------------------------------------------|
E|-----------------------------------------------------|

   G                     E7           A (stop)  Aaug
A  Blue Jeans momci rade    srcem i snom

Solo harmonika (akordi strofe)

Refren

Strofa
D                             G                                   D
Ajd dodaj uze, vezi sajlu sad, stavi teg od 25, i digni sve u visinu,
D     A7                 D                  A7                   D
Da ti radim, ne lezim badava, jos jedan za ekstra, i cujem, oh yeah!
D     A7                 D                  A7                   D   D C#7 D
Da ti radim, ne lezim badava, jos jedan za ekstra, i cujem, oh yeah!


----------------------

Akord Aaug (note zaug“ akorda se ponavljaju na svaka 4 praga razmaka,
pa je razlika samo u redolsedu nota i bas/root noti).
Ovde umesto Aaug moze i Faug, samo je razlicita nota u basu.

   Aaug  Faug
e|--1--|-----|
B|--2--|--6--|
G|--2--|--6--|
D|--3--|--7--|
A|--0--|--8--|
E|-----|-----|





Poslao: Andrija1977 | Komentara: 0 | Glasova: 0 | Ocjena: x | Print