sinobusi - camac na tisi

Poslao: Andrija1977 | Komentara: 0 | Glasova: 0 | Ocjena: x | Print
Pesma: Camac na Tisi
Izvodjac: Sinobusi
Album: U pravcu jablanova (2007)
Transkripcija: Andrija1977
E-mail: smitandrija@yahoo.com

Napomene:
Obzirom da nacin na koji Sinobusi sviraju ovu sjajnu pesmu prevazilazi moje znanje,
ko god da zna ili ima dopune i ispravke akorda koje sviraju Milan Korac i Nenad
Patkovic posaljite ili ostavite u komentaru, bicu vam veoma zahvalan.
Ako neko ume da prepozna i akorde i ukrase koje sa njima svira Zoran Alvirovic-Kina
u emisiji "Sinobusi i putnici", to bi zaista bilo sjajno. Unapred hvala!

Intro

  E8   F#8   G8  A8     B7                  Em  B7     Em
e---------------------|-----0--------------------2--|-----------------------|
B-5-5--7-7--8-8--10---|------------------------x-0--|----------2/3\2--1-----|
G---------------------|-3/4--2p0---2-2/3\2p0---x-2--|--------0------2--2-4v-|
D-2-2--4-4--5-5--7----|----------------------2-x-1--|--1h2--4---------------|
A---------------------|------------------------x-2--|-----------------------|
E---------------------|-----------------------------|-----------------------|


Strofa

Akordi strofe

Gitara 1 (prvi red strofe)

    Em  Cmaj7   B7    Em     Em  Em(maj7)  Em7   G#dim7  Am7
e|--0--|-----|-----|--0---||---7--|------|-----|-------|--5--|
B|--0--|--5--|--4--|--0---||---8--|-x-8--|-x-8-|--6----|--5--|
G|--0--|--4--|--2--|--0---||---9--|-x-8--|-x-7-|--4----|--5--|
D|--2--|--5--|--4--|--2---||---9--|-x-9--|-x-9-|--6----|--5--|
A|--2--|--3--|--2--|--2---||---7--|------|-----|--5----|--7--|
E|--0--|-----|-----|--0---||-0----|------|-----|--4----|--5--|

Gitara 2 (prvi red strofe)

    Em  Cmaj7   B7    Em     Em Em(maj7) Em7 G#dim7  Am7
e|--0--|--0--|--2--|--0---||----|-----|-----|---1--|--0--|
B|--0--|--0--|--0--|--0---||--0-|--0--|--0--|---0--|--1--|
G|--0--|--0--|--2--|--0---||--0-|--0--|--0--|---1--|--0--|
D|--2--|--2--|--1--|--2---||--2-|--1--|--0--|---0--|--2--|
A|--2--|--3--|--2--|--2---||--2-|--2--|--2--|------|--0--|
E|--0--|-----|-----|--0---||--0-|--0--|--0--|------|-----|


Gitara 1 (drugi i treci red strofe)

   Am7  D#dim7 Em7  C#m7b5   C7     B7  oktave E8,F#8,G8,A8   C7   B7   Em
e|--5--|-----|--7--|------||--3--|--2--|-------------------|--3--|--2-|--0-|
B|--5--|--7--|--8--|--5---||--5--|--4--|-55--77--88--10----|--5--|--4-|--0-|
G|--5--|--5--|--7--|--4---||--3--|--2--|-------------------|--3--|--2-|--0-|
D|--5--|--7--|--9--|--5---||--5--|--4--|-22--44--55--7-----|--5--|--4-|--2-|
A|--0--|--6--|--7--|--4---||--3--|--2--|-------------------|--3--|--2-|--2-|
E|-----|-----|-----|------||-----|-----|-------------------|-----|----|--0-|

Gitara 2 (drugi i treci red strofe)

   Am7  D#dim7 Em   C#m7b5    C7    B7    Em                  C7    B7   Em
e|--0--|--2--|--0--|------||--3--|--2--|--0----------------|--3--|--2-|--0-|
B|--1--|--1--|--0--|--0---||-----|--0--|--0----------------|-----|--0-|--0-|
G|--0--|--2--|--0--|--0---||--3--|--2--|--0----------------|--3--|--2-|--0-|
D|--2--|--1--|--2--|--2---||--2--|--1--|--2----------------|--2--|--1-|--2-|
A|--0--|-----|--2--|--4---||--3--|--2--|--2----------------|--3--|--2-|--2-|
E|-----|-----|--0--|------||-----|-----|--0----------------|-----|----|--0-|


   Em    Cmaj7 B7  Em           Em    Em(maj7) Em7  G#dim7 Am7
To davno be....se  secam se ja, kad u tvom     oku  prvi   put plam zasja
Am7         D#dim7      Em7          C#m7b5
Tad si meni znala reci, dragi pricaj mi o sreci,
C7        B7         E8, F#8, G8, A8 C7        B7         Em   B7
Ne daj da zalud leti maj,            ne daj da zalud leti maj.

   Em    Cmaj7 B7  Em           Em  Em(maj7) Em7    G#dim7 Am7
To davno be....se  secam se ja, kad meni     ti si rekla  ztvoja sam sva”,
Am7        D#dim7       Em7           C#m7b5
To se vise vratit nece, sad su prosli dani srece,
C7        B7         E8, F#8, G8, A8 C7        B7         Em   B7
Al jos te uvek volim ja,             al jos te uvek volim ja.

Intro za solo

  E8   F#8 G8  F#8      G6  A6 Bb6  A6
e---------------------|-3-|-5-|-6-|-5-|
B-5-5--7-7-8-8-7------|-5-|-7-|-8-|-7-|
G---------------------|-4-|-6-|-7-|-6-|
D-2-2--4-4-5-5-4------|-5-|-7-|-8-|-7-|
A---------------------|---|---|---|---|
E---------------------|---|---|---|---|

Solo (Strofa)

Refren

Akordi refrena
  Bbdim7  B7   Em7   Cmaj7  B7   Edim7   B7
e|-----|--7--|--7--||--3--|--2--|-----|------||
B|--8--|--7--|--8--||--5--|--4--|--8--|--7---||
G|--6--|--8--|--7--||--4--|--2--|--6--|------||
D|--8--|--7--|--9--||--5--|--4--|--8--|--7---||
A|--7--|--9--|--7--||--3--|--2--|--7--|--6---||
E|--6--|--7--|--0--||-----|-----|-----|--7---||

Bbdim7   B7                     Em7
         Po tihoj smo reci tada cesto plovili,
B7                     Cmaj7  B7    Edim7    B7
u malenom camcu smo se prvi   put polju..bi..li,

Strofa
  Em       Cmaj7 B7  Em            Em Em(maj7) Em7   G#dim7  Am7
Al  sad je sas...vim drukcije sve, i  vise     nikad ne..ce  biti ko pre,
Am7         D#dim7     Em7           C#m7b5
Pokraj mene vise nisi, camcem plovim sam po Tisi,
C7        B7         oktave E8,F#8,G8,A8  C7        B7         Em
Al jos te uvek volim ja,                  al jos te uvek volim ja.

Solo (Akordi pratnje Em Em(maj7) Em7 C#m7b5)

   Em Em(maj7) Em7 C#m7b5
e|----|-----|-----|------|
B|--0-|--0--|--0--|--0---|
G|--0-|--0--|--0--|--0---|
D|--2-|--1--|--0--|--2---|
A|--2-|--2--|--2--|--4---|
E|--0-|--0--|--0--|------|

Outro

   G6  A6  Bb6  A6  3x    Em
e|--3-|-5-|-6-|-5-|     |-0--|
B|--5-|-7-|-8-|-7-|     |-0--|
G|--4-|-6-|-7-|-6-|     |-0--|
D|--5-|-7-|-8-|-7-| ... |-2--|
A|----|---|---|---|     |-2--|
E|----|---|---|---|     |-0--|

Poslao: Andrija1977 | Komentara: 0 | Glasova: 0 | Ocjena: x | Print