idoli - poslednji dani (puna verzija)

Poslao: Aleksadar Djordjevic | Komentara: 0 | Glasova: 0 | Ocjena: x | Print
Pesma: Poslednji dani/Marsal
Album: Odbrana i poslednji dani/Odbrana i zastita
Izvodjac: Idoli

Hvala cicirar@yahoo.com (Sat-Ok) na transkripciji akorda

/tablatura je bazirana po studijskom albumu Idola "Odbrana i poslednji dani" i
po live albumu "Odbrana i zastita"/


Bm D#m C# G# x4

solo gitara uvod/strofa:
     Bm     D#m      C#        G#
e|--------------------------------------|
H|--------------------------------------|
G|--3/6-6--8/11-11--6/10-10-------------|
D|---------------------------6/10-10----|
A|--------------------------------------|
E|--------------------------------------|

Bm   D#m C#   G#
 Noci mi  daju moc
Bm   D#m C#  G#
 noci su  moj red
Bm  D#m C#   G#
 one su  svecane
Bm    D#m C#    G#
 haljine,  raspete

D#m   C#
 Dodjite,
D#m   C#
 dodjite,
D#m    C#  G#
 cekam vas  ja nov

solo gitara refren:
     D#m      C#         D#m      C#           D#m      C#       G#       G#
e|-------------------|-------------------|---------------------------------------|
H|-------------------|-------------------|---------------------------------------|
G|--8/11-11--6h10-10-|--8/11-11--6/10-10-|---8/11-11--6/10-10--------------------|
D|-------------------|-------------------|---------------------6/10-10--6/10-10--|
A|-------------------|-------------------|---------------------------------------|
E|-------------------|-------------------|---------------------------------------|

Ceka me moj bog
ceka me moj bog
nocu sam dvojnik svoj
ceka me moj bog

Dodjite,
dodjite,
cekam vas ja nov

la la la la
la la la la
la la la la
la la la la

solo gitara:
     Bm     D#m      C#        G#
e|--------------------------------------|
H|--------------------------------------|
G|--3/6-6--8/11-11--6/10-10---5-5-------|
D|---------------------------6-6-6------| x3
A|--------------------------------------|
E|--------------------------------------|
     Bm     D#m      C#        G#
e|--------------------------------------|
H|--------------------------------------|
G|--3/6-6--8/11-11--6/10-10-------------|
D|---------------------------6/10-10----|
A|--------------------------------------|
E|--------------------------------------|

klavijatura/vokali:
e|------------------------------------|
H|------------------------------------|
G|--------------10---8--6-5-----------|
D|--8---11-8-11-------------6---------|
A|------------------------------------|
E|------------------------------------|

Dodjite,
dodjite,
cekam vas ja nov

doci cu sigurno   |  marsal je moj bog
cisto i ponosno   |  marsal je moj bog
cekace moj bog    |  marsal zna otkuda
cekace, znam to   |  marsal zna ko sam ja

solo gitara 3. strofa (varijacija teme - 4 ponavljanja):
                  I
     Bm     D#m      C#        G#
e|--------------------------------------|
H|--------------------------------------|
G|--3/6-6--8/11-11--6/10-10---5-5-------|
D|---------------------------6-6-6------|
A|--------------------------------------|
E|--------------------------------------|
                  II
     Bm     D#m       C#       G#
e|--------------------------------------|
H|------------------------6-------------|
G|--3/6-6--8/11-11--6/10-6-6---5-5------|
D|----------------------------6-6-6-----|
A|--------------------------------------|
E|--------------------------------------|
                 III
     Bm     D#m       C#       G#
e|--------------------------------------|
H|------------------------6-------------|
G|--3/6-6--8/11-11--6/10-6-6---5-5------|
D|----------------------------6-6-6-----|
A|--------------------------------------|
E|--------------------------------------|

                  IV
     Bm     D#m              C#       G#
e|--------------------------------------------|
H|---------------7-7------6--6-6--------------|
G|--3/6-6--8/11-8-8-8----6--6-6-6--------5-5--|
D|---------------------------------6/10-6-6---|
A|--------------------------------------------|
E|--------------------------------------------|

la la la la
la la la la
la la la la
la la la la

klavijatura:
e|---------------------------|
H|---------------------------|
G|--------------10---8-/-13--|
D|--8---11-8-11--------------|
A|---------------------------|
E|---------------------------|
Poslao: Aleksadar Djordjevic | Komentara: 0 | Glasova: 0 | Ocjena: x | Print