idoli - vetar i zastave (puna verzija)

Poslao: Aleksadar Djordjevic | Komentara: 1 | Glasova: 0 | Ocjena: x | Print
Pesma: Vetar i zastave
Album: Odbrana i poslednji dani/Odbrana i zastita
Izvodjac: Idoli

/tablatura je bazirana po studijskom albumu Idola "Odbrana i poslednji dani" i
po live albumu "Odbrana i zastita"/

Uvod/strofa:
    Dm                  C               Dm                 C
e|-----5-------5---------------------------5-------5------------------------|
H|-----6-------6----------5----------------6-------6---------5--------------|
G|-----7-------7----------5----------------7-------7---------5--------------|
D|-----7-------7----------5--3h5p3---------7-------7---------5--3h5p3-------|
A|--5-------5-----5-----3---------5-3---5------5------5----3---------5------|
E|--------------------------------------------------------------------------|

/u prve dve strofe razlaganje akorda isto kao u uvodu
/druga gitara svira obicno razlaganje sa po 4 tona Dm i C akorda sa otvorenim zicama

Dm      C
 Kad te vidim,
Dm       C
 kad te, volim tvoj glas
Dm      C     Dm
 kad te vidim,
C
mislim na nas

Kad te vidim,
kad te, volim tvoj glas
kad te slusam
mislim na nas

/u trecoj strofi prestaje razlaganje kao na uvodu,
jedna gitara svira obicno razlaganje druga samo okida akorde

Ovaj dan nasmejan
donosi nam ponude
ti si tu i tu sam ja
hajde da probamo sve

klavir:
e|------------------------------------------------------------------------|
H|------------------------------------------------------------------------|
G|------------------------------------------------------------------------|
D|-----------7-5----------------------------------------7-5---------------|
A|--5-3-5--3-----7-5-3---5-3-5--3--7-5-3-0-3---3-5-3--3-----7-5-3-5--3-7--|
E|------------------------------------------------------------------------|

Kad te vidim,
kad te, volim tvoj glas
kad te vidim
mislim na nas

Solo:
/solo izgradjen iz glavna 2 dela, na svakom ponavljaju se dodaje nesto novo posle II

          I                      II                     prvi put
e|---------------------|-----------------|---------------------------------------|
H|--15-15-13-----------|-----------------|---------------------------------------|
G|-----------15p14\12*-|--12h15p14p12h14-|-10------------------------------------|
D|---------------------|-----------------|---12*--12/15\12-----------------------|
A|---------------------|-----------------|---------------------------------------|
E|---------------------|-----------------|---------------------------------------|

          I                      II                    drugi put
e|---------------------|-----------------|---------------------------------------|
H|--15-15-13-----------|-----------------|---------------------------------------|
G|-----------15p14\12*-|--12h15p14p12h14-|---------------------------------------|
D|---------------------|-----------------|--15\12/15\12--------------------------|
A|---------------------|-----------------|---------------------------------------|
E|---------------------|-----------------|---------------------------------------|

          I                      II                    treci put
e|---------------------|-----------------|--------------------13-12-10-8-8-6-5--|
H|--15-15-13-----------|-----------------|--------------------------------------|
G|-----------15p14\12*-|--12h15p14p12h14-|--------------------------------------|
D|---------------------|-----------------|--5/7-9-10-10/12----------------------|
A|---------------------|-----------------|--------------------------------------|
E|---------------------|-----------------|--------------------------------------|

*na live albumu "Odbrana i zastita" svira samo 15 12, bez pulloff i slide
*G10 naglasen u sticato stilu, pa D12 let ring

Verujem da ces moci
sve da mi dokazes
samo prvo budi uz mene

Ti si sve sto preostaje
kao vetar

Zavisim od zaborava
u tvom pogledu, pamtim stvari
koje nisi rekla
k'o da znam sta nedostaje

Ti i ja i vetar i zastave

/na kraju ponovo krece razlaganje kao u uvodu


 Komentari:
Poslao :: Aleksadar Djordjevic
Moguća ispravka:

posle 3. strofe ima deo koji svira klavijatura. Napisao sam u tabu na 5. i 4. žici, ali je verovatno tačnije da se svira na 4. i 3. (počinje na 4. žici 12-10-12)
Poslao: Aleksadar Djordjevic | Komentara: 1 | Glasova: 0 | Ocjena: x | Print