dargoron - dusa ratnika

Poslao: Drain Soul Bijeljina | Komentara: 1 | Glasova: 0 | Ocjena: x | Print
Dargoron - Dusa ratnika
By Drain Soul
Tuning: standard E

[intro]
        . .  !         . .  !    !
e|-----------------------------------------------------------------|
B|-----------------------------------------------------------------|
G|-----------------------------------------------------------------|
D|--5/7------7~~~~10\7------8~~~~7~~~~3-3--3-3--2-------------3-0--|
A|--3/5-5-5-------8-\5-5-5------------1-1--1-1--0--5---------------|
E|-------------------------------------------------3--1h3p1-3------|

[main riff]
        . . . . . .       . . . . . .      . . . . . .  . . .      . . .
e|----------------------------------------------------------------------------|
B|----------------------------------------------------------------------------|
G|------------------------------------------------------------3----------5----|
D|--5/7--------------10\7--------------5-7--------------------3----------5----|
A|--3/5-5-5-5-5-5-5--8-\5-5-5-5-5-5-5--3/5-5-5-5-5-5-5--1-1-1-1----3-3-3-3----|
E|----------------------------------------------------------------------------|

[interlude]
       . . . . . . . . . . . . . .     . . . . . . . . . . . . . . .
e|-------------------------------------------------------------------|
B|-------------------------------------------------------------------|
G|-------------------------------------------------------------------|
D|----------------------------------3--------------------------------|
A|--3-(5)-(5)-5-(5)-(5)-5-(5)-(5)-5---(5)-(5)-5-(5)-(5)-5-(5)-(5)-5--|
E|-------------------------------------------------------------------|
      ..................................       .....
e|--------------------------------------------------------|
B|--------------------------------------------------------|
G|----------------------------------------3----------5----|
D|----------------------------------------3----------5----|
A|-3-(5)-(5)-5-(5)-(5)-5-(5)-(5)-5--1-1-1-1----3-3-3-3----|
E|--------------------------------------------------------|
      ............................    ..............................
e|-------------------------------------------------------------------|
B|-------------------------------------------------------------------|
G|-------------------------------------------------------------------|
D|----------------------------------3--------------------------------|
A|--3-(5)-(5)-5-(5)-(5)-5-(5)-(5)-5---(5)-(5)-5-(5)-(5)-5-(5)-(5)-5--|
E|-------------------------------------------------------------------|
      ..............................
e|--------------------------------------------------------|
B|--------------------------------------------------------|
G|--------------------------------------------------------|
D|--------------------------------------------------------|
A|-3-(5)-(5)-5-(5)-(5)-5-(5)-(5)-5--3--2--3--5--3--2------|
E|----------------------------------1--0--1--3--1--0------|

[verse - play main riff]

[pre-chorus]
                     T   T   T   T   T   T   T   T
e|---------------------------------------------------|
B|---------------------------------------------------|
G|--3------------------------------------------------|
D|--3--------------------14--15--17--19--17--15--14--|
A|--1----------------17------------------------------|
E|---------------------------------------------------|


e|-----------------------------------|
B|-----------------------------------|
G|--3--------------------------------|
D|--3----------------5---------------|
A|--1----------------5---------------|
E|-------------------3---------------|



e|---------------------------------|---------------------------|
B|---------------------------------|---------------------------|
G|---------------------------------|---------------------------|
D|--7--7--7--10-10-10--5--5--5--7--|--12--12--10--10--9--5--7--| x2
A|--5--5--5--8--8--8---3--3--3--5--|--10--10--8---8---7--3--5--|
E|---------------------------------|---------------------------|

      T             T
e|---------------------------------------------|
B|---------------------------------------------|
G|---------------------------------------------| last time
D|-----------------------------------10--5--7--| (chorus ending)
A|----------------------------10-12--8---3--5--|
E|--8--10--------8--10--------8--10------------|


[solo]


e|----------------------------------------------------------------------------|
B|----------------------------------------------------------------------------|
G|-------------------------------------10p9-------10p9-------10p9-------10p9--|
D|-10-12-12-12-12-12-10-12-12-12-12-12------12-12------12-12------12-12-------|
A|----------------------------------------------------------------------------|
E|----------------------------------------------------------------------------|

        ?              ?
e|------------------------------------------------|
B|------------------------------------------------|
G|-9-10-12/14~~~~12-10-12~~~~~10-9h10p9--7--5--7--|
D|------X--------------X--------------------------|
A|------X--------------X--------------------------|
E|------------------------------------------------|


e|--------------------------------------------------------------------------|
B|-13b15-10----10-13b15--13h15p13-10----------10-13-11h13p11-10---------11--|
G|-X--------12----X------------------12-10-12-------------------12-10-9-----|
D|--------------------------------------------------------------------------|
A|--------------------------------------------------------------------------|
E|--------------------------------------------------------------------------|

e|----------------------------13-15-17-18-17h18p17-15-18-15-18/22--|
B|----------------------15-17--------------------------------------|
G|-------------14-15-17--------------------------------------------|
D|----14-15-17-----------------------------------------------------|
A|-17--------------------------------------------------------------|
E|-----------------------------------------------------------------|

                  T     T     T     T     T
e|-22-22-18-20-22-20-18-22-18-22-18-22-18-22-18-
B|----------------------------------------------|
G|----------------------------------------------|
D|----------------------------------------------|
A|----------------------------------------------|
E|----------------------------------------------|

                T     T     T     T
e|-22-22-18-20-22-20-17-20-17-20-17-20-17-|
B|----------------------------------------|
G|----------------------------------------|
D|----------------------------------------|
A|----------------------------------------|
E|----------------------------------------|

e|-15-----17h18p17-13-17h18p17-13-17h18p17-13-17h18p17-13-12h13p12--------------|
B|----17-----------------------------------------------------------15-13----13~~|
G|-----------------------------------------------------------------------14-----|
D|------------------------------------------------------------------------------|
A|------------------------------------------------------------------------------|
E|------------------------------------------------------------------------------|

   SWEEEEEEEP
e|-18p13----------------------13-17p13----------------13-|
B|-------15----------------15----------15----------15----|
G|----------15----------15----------------15----15-------|
D|-------------15----15----------------------15----------|
A|----------------17-------------------------------------|
E|-------------------------------------------------------|


e|-17/20\17p13----------------13-17/18\17p13-17p13----13-|
B|-------------15----------15----------------------15----|
G|----------------14----14-------------------------------|
D|-------------------15----------------------------------|
A|-------------------------------------------------------|
E|-------------------------------------------------------|


e|-10-10-12-12-13-13--12-13-13-15-15--17b18--20b22~~~~~~~|
B|-------------------------------------------------------|
G|-------------------------------------------------------|
D|-------------------------------------------------------|
A|-------------------------------------------------------|
E|-------------------------------------------------------|




********************

Napomena:

Solo nije 100% tacan. Dio koji je napisan ispod SWEEP
je jednostavno previse brz, a sviran je na nekom muljavom
single coil neck magnetu (poput imarzio Injector ili SD SSL1).
Dakle solo nije 100% tacan ali je u tonalitetu
i dobro zvuci.

********************


Legend:

b     -     bend
h     -     hammer on
p     -     pull off
~     -     vibrato
/     -     slide up
\     -     slide down
.     -     palm muting
!     -     pinch harmonic
?     -     vibrato-induced harmonic
X     -     muted string note
(5)   -     death note(svira se kao prirodni harmonik, ali prije samog harmonika)
T     -     tremolo picking (okidaj sto brze mozes)
 Komentari:
Poslao :: Drain Soul Bijeljina
Dva bara iznad [solo] se odnose na refren i sviraju se na refrenu kako je naznačeno
Poslao: Drain Soul Bijeljina | Komentara: 1 | Glasova: 0 | Ocjena: x | Print