korni grupa - sonata

Poslao: Sat-Ok | Komentara: 5 | Glasova: 2 | Ocjena: 5 | Print
Pesma: Sonata
Izvodjac: Korni Grupa
Transkripcija: Sat-Ok, cicirar@yahoo.com
Hvala nenad91 za skinuti tekst.


Uvod (arr. gitara):
   C#m                     C#m/H
e|-------------------------------------------------|
B|-----5-----5-----5-----5-----5-----5-----5-----5-|
G|---6-----6-----6-----6-----6-----6-----6-----6---|
D|-------------------------------------------------|
A|-4-----4-----4-----4-----------------------------|
E|-------------------------8-----8-----8-----8-----|

   C#m/A       D/F#        C#m4/Ab C#m/Ab C#m2/Ab Ab C#m
e|-----------------2-----2-------------------------------------4---|
B|-----5-----5---3-----3-------7-----5-----4-----4-----5-----5-----|
G|---6-----6-----------------6-----6-----6-----5-----6-----6-------|
D|-------------------------------------------------------6---------|
A|-------------------------------------------------4---------------|
E|-5-----5-----2-----2-----4-----4-----4-----4---------------------|


        Ab/C          C#m    F#m
U jednu noc stalno se vracam___
Hsus4  H           E          C#m C#m/C C#m/H
     i opet cu.jem zvuk klavira
    Em
one suze, onaj smeh
      G7          C  C/H Bdim/B
jedno dete, jedan covek
    Hm    Em   F#sus4 F#  Hm
i sonata_____, o_____________
H7    Em
To su bili dugi sati
      H7
ludih mas-tanja
     Em                   H7 B7 C#7 F#m
dugi sati u sam,oci jedne ljuba-vi
              G
divne radosti sto, eto
Cdim    F#m  C#7       F#m
sve ima sjaj____  te sonate


Rif
                 C#7      F#m  Ab7
e|----------------------------------------|
B|---------------------------------4-4--4-|
G|-6-4--------------/6--4------5-6--------|
D|-----7-6-4-7-6----------7---------------|
A|----------------4-----------------------|
E|----------------------------------------|

                 C#m  F#m    Eb7      Ab
e|---------------4------------------------|
B|---------4-5-7------7--5-7-5----4-5-4---|
G|-----5-6--------------------------------|
D|-6-8------------------------------------|
A|----------------------------------------|
E|----------------------------------------|


|Ab  A/Ab H/Ab|Ab  A/Ab H/Ab|Ab  Ab/C#m E C#m|C#m E C#m|

|Cdim  |C#m  |Eb7  |Ab7/Eb  |

|C#m  |Ab7/Eb  |E   |Ab7sus4  Ab7|C#m...

        Ab/C...
U jednu noc...


     ...F#m                               F#m/E
     e|---------------------------------------------------------------------|
     B|------10------10------10------10--------10-------10------10-------10-|
     G|---11------11------11------11--------11-------11------11-------11----|
     D|---------------------------------------------------------------------|
     A|-9-------9-------9-------9-------------------------------------------|
     E|----------------------------------12-------12-------12------12-------|
...te sonate

   F#m/D             C#          C#+ F#m
e|---------------------------------------------------17--14--|
B|-------10-------10------9------10---------------14---------|
G|----11-------11------10-----10---------------14------------|
D|------------------------------------16----16---------------|
A|---------------------------------------16------------------|
E|-10-------10-------9------9--------------------------------|


----------------------------------------
| /  slide up
| \  slide down
| h  hammer-on
| p  pull-off
| ~  vibrato
| +  harmonic
| x  Mute note




 Komentari:
Poslao :: Doom
Da. To je to. I taj uvod ala Mocart)
Poslao :: outmac
Baš dobar rad. Tnx
Poslao :: Sat-Ok
Beše ima i ona Mesečeva sonata, uvod sliči. Hehe.
Inače Dalibor Brun je ovde rasturio kako je otpevao, treći po redu u grupi. Hvala vam puno, uživajte.
Poslao :: Doom
Bas tako prijatelju. Meseceva sonata je uvod ove pesme,a zadnji deo iste kompozicije je Etida. Igrao se i Kovac malo.))Da,stvarno je Brun rasturio.)
Poslao :: Doom
Nego Sat-Ok, nabio si ovde opasne standarde sa Korni,Time,uplasice se ovi mladji,novi clanovi pa nece smeti da postave pesmu i ako je i urade kad vide dimove,majeve,suseve,pluseve,pa jos devetke)).
Poslao: Sat-Ok | Komentara: 5 | Glasova: 2 | Ocjena: 5 | Print