time - igraj narode moj (ver.2)

Poslao: Sat-Ok | Komentara: 4 | Glasova: 4 | Ocjena: 4.75 | Print
Pesma - Igraj narode moj
Izvodjac - Time
Transkripcija: Sat-Ok, cicirar@yahoo.com

Manje poznati akordi:
       EADGBE
Dm7    x57565
D9sus4 x55555
G9sus4 - isto kao D9sus4 samo 10 prag


Uvod - Am D Am Am6 Am...

       C      G      B        F
Kad se covjek rodi i stupi na scenu
C        G         F        Am
Uloga mu laka, neponovljiva
    C        G     B           F
Jer danas je djete sutra mozda covjek
C       G    F    Am   G
Obrnuto samo zelja, neostvarljiva

Igraj narode moj!

Rif 1
   Am    Am7    Am     Am7     Am    Am7     Am    Am7
e|-----------------------------------------------------|
B|-----------------------------------------------------|
G|-------5~------------5~------------5~------------5~--|
D|-------5~------------5~------------5~------------5~--|
A|-----------------------------------------------------|
E|-5-x-x-----3-4-5-x-x-----3-4-5-x-x-----3-4-5-x-x-----|

       Am        C        G      F     Am   Am7
Kad su meni u septembru pedesete zivot dali
     Am            C
Dali su mi i ulogu moju
        G     F    G  Am    Am7
Dal' ju zelim nisu me pitali
    Am           F           G
Igrao sam sve od tada uvijek dobro
  F   G     Am       Am7
I svi su mi pljeskali
  Am            E7       F
A jucer kad sam bio najiskreniji
Dm            Am
Jucer su me izvizdali
Dm7
 Gurnuli me dole sa scene
D9sus4
 Htjeli da im vratim dug
G9sus4
 Govorili protiv mene

Zahtjevali kaznu sud
Dm7
 I sad lutam trazim pomoc
D9sus4
 Uspomene zovem svoje
G9sus4
 Da mi daju malo srece
  C          B           Am Am7 Am Am7
I vrate me u djetinjstvo moje

     C        G     B         F
I da opet ko' nekad zivim kao ptica
   C        G     F          Am
Da vjerujem svima i da volim ljude
   C     G         B          F
Da jurim poljima i proljetnim sumama
C            G         F     Am
Da me jutrom usne moje majke bude
      C    G           B        F
Da se ludo radujem kad krenem u skolu
C           G       F         Am
Da se svaki dan sto puta zaljubim
     C         G         B         F
I da drhtim od srece dok drzim joj ruke
C          G          F        Am
Ne znajuci kako da je poljubim hej____ igraj

(N.C)
Igraj!
Igraj narode moj, igraj!
Igraj narode moj
Pozornica je svima otvorena
Hajde redom svi
Dobra ova muzika pobro
Zivota mi

Rif 2
   A
e|---------------------------------|
B|-10-10-10-10~-10-8-7-8-10-10-10~-|
G|---------------------------------|
D|---------------------------------|
A|---------------------------------|
E|---------------------------------|

e|-------------------------------------------------------------|
B|-10-p8-7-10-p8-7-10-p8-7-10-p8-7-10-p8-7--10-p8-7------------|
G|--------------------------------------------------9\7-7/9-9--|
D|-------------------------------------------------------------|
A|-------------------------------------------------------------|
E|-------------------------------------------------------------|

e|-----------------------------------------|
B|-5-7-8-5-7-8-5-8-7-h8-p7-p5-7-5----------|
G|--------------------------------7-9-9-9~-|
D|-----------------------------------------|
A|-----------------------------------------|
E|-----------------------------------------|

                                         Am
e|--------------------------------------------|
B|-10-8-7-10-8-7-10-8-7-7---------------(10)--|
G|------------------------7-9-6-7-9-----------|
D|----------------------------------/9-7-7----|
A|--------------------------------------------|
E|--------------------------------------------|
                                    (Kad covjek...)
    Am...
Kad covjek shvati da proslo se ne vraca
I da je vec ostario sa dvadeset godina
On se ozeni onom koju voli
I misli da je sreca to sto ima
A od nje samo tra.zi
Da mu bude vjerna i da rodi sina

Jer svi smo mi veliki i svi smo mi mali
Ali u sustini svi smo jedno isto
Isti svi imamo pocetak
Svi imamo kraj
A ono izmedju mozda nije bitno

Zato igraj sad, narode moj
Zivot je scena velika
I nije va.zno tko je na njoj glavni
Jer mi smo i glumci i aut.ori i publika

Rif 2...Fade out


| /  slide up
| \  slide down
| h  hammer-on
| p  pull-off
| ~  vibrato
| +  harmonic
| x  Mute note

 Komentari:
Poslao :: rasko
Daaaaaaaaaaaaaaaaaaaaa,to je to. Svaka cast,samo pakuj Time i Korni grupu))))))))
Poslao :: alex.anicic
Izvinjavam se autoru je mi je mis skliznuo na 4 ali ocena je cista 5-ica! Sjajno!
Poslao :: alex.anicic
Izvinjavam se autoru je mi je mis skliznuo na 4 ali ocena je cista 5-ica! Sjajno!
Poslao :: alex.anicic
Izvinjavam se autoru je mi je mis skliznuo na 4 ali ocena je cista 5-ica! Sjajno!

Poslao: Sat-Ok | Komentara: 4 | Glasova: 4 | Ocjena: 4.75 | Print