memorija - ogan pod dzvezdite (solo)

Poslao: Stojko | Komentara: 0 | Glasova: 0 | Ocjena: x | Print
Pesna: Memorija - Ogan pod dzvezdite (Solo)
Transkripcija: 100jko

Figura I
e|----------------------------------------------|
B|---/5-5----5-6-8--6--5-----5-6-5\-------------|
G|------------------------7------------5-4------|
D|-----------------------------------------7~---|
A|----------------------------------------------|
E|----------------------------------------------|

e|---------------------------------------------------|
B|---/5-5----5-6-8--8b10--8--6--5-6-5--5h6p5-5h6p5---|
G|---------------------------------------------------|
D|---------------------------------------------------|
A|---------------------------------------------------|
E|---------------------------------------------------|

e|------------------------------------|
B|--6-5--------5-6--5---5-------------|
G|------7~---7--------7------5-4------|
D|-------------------------------7~---|
A|------------------------------------|
E|------------------------------------|

^^ Vtori put kad odsvirate ovo mozete umesto 7~ na kraju, da uradite 7* i dive bomb

Figura II
e|-----------------------------------|
B|---------------5----5~----5-6------|
G|--/4~---4-5-7-----------------7~---|
D|-----------------------------------|
A|-----------------------------------|
E|-----------------------------------|

Figura III
e|-------------------------|
B|---------------5----5~---|
G|--/4~---4-5-7------------|
D|-------------------------|
A|-------------------------|
E|-------------------------|


Redosled:
Figura I
Figura II
Figura I
Figura III


| /  slide up
| \  slide down
| h  hammer-on
| p  pull-off
| ~  vibrato (sa whammy rucka)
| *  harmonic
Poslao: Stojko | Komentara: 0 | Glasova: 0 | Ocjena: x | Print