leva patika - nepravda (solo)

Poslao: Stojko | Komentara: 0 | Glasova: 0 | Ocjena: x | Print
Pesna: Leva Patika - Nepravda
Transkripcija: 100jko

Prelaz:
E|-------------------------------------------------------------
B|-----------------------17------------------------------------
G|--------16----16----16----16----14b14b14b---14----14---------
D|--14-17----------17----------17----------17-----------17-16--
A|-------------------------------------------------------------
E|-------------------------------------------------------------

E|-----------------------------------------------------------------
B|----------------16-17-16----16h17p16-----------------------------
G|----------16-17----------------------16h17p16--------------------
D|-14-17-16-------------------------------------16h17p16-14h15p14--
A|-----------------------------------------------------------------
E|-----------------------------------------------------------------


Figura I:

    Sakam BMW Alpina ama nemam ni za Drina
    Mamo mamo spasi me
    Sakam zenska luda fina da bide kako Lina
    Mamo mamo spasi me
E|--------------------------------------------------
B|-----8--10-8--10-8--10----------------------------
G|--9--------------------9-------7b-7b-7b----9--7~--
D|----------------------------10----------10--------
A|--------------------------------------------------
E|--------------------------------------------------

E|---------------------------------------
B|---------------------------------------
G|--9~-9~----7-----7-----9-----7---------
D|--------------10----------------10-7~--
A|---------------------------------------
E|---------------------------------------

    Sakam sakam da sum slaven na segde da sum glaven
    Mamo mamo spasi me
    Uh sto sakam da sum slaven kaj Keti da sum glaven
    Mamo mamo spasi me


Figura II:

    Nepravda pa toa e nepravda
    Imas ti nemam jas
E|---------------------------------------------
B|---------------------------------------------
G|--9--12----12b14----12--9h12p9---------------
D|----------------------------------12--12-12--
A|---------------------------------------------
E|---------------------------------------------

E|--------------------------------------------
B|--------------------------------------------
G|--9--12----12b14r12b14----12-9--------------
D|---------------------------------12--12-12--
A|--------------------------------------------
E|--------------------------------------------

    Site velat deka mnogu baram
    o baram baram no nemam!
E|------------------------------------
B|------------------------------------
G|------------------------------------
D|--12-10-12-10-12-10-12-10-12--------
A|--------------------------------12--
E|------------------------------------

E|-----------------------------------
B|-----------------------------------
G|-----------------------------------
D|-------10-12-10-12-10----10--------
A|----------------------12----12-10--
E|-----------------------------------


Prelaz i Figura I = x2 odsviras


Redosled:

Prelaz
Figura I
Figura II
Prelaz
Figura I
Figura II
Prelaz
Solo



Poslao: Stojko | Komentara: 0 | Glasova: 0 | Ocjena: x | Print