atomsko skloniste - zelja za zeljom

Poslao: Sat-Ok | Komentara: 0 | Glasova: 0 | Ocjena: x | Print
Pesma - Zelja za zeljom
Izvodjac - Atomsko skloniste
Transkripcija: Sat-Ok, cicirar@yahoo.com

  Uvod (E5)     Rif 1 (E5)
e|--------------|----------------------------------------------|
B|--------------|----------------------------------------------|
G|--------------|---12-12----14----12---------14-14-12---------|
D|--------------|---12-12-14-14-14-12-14~-----14-14-12-12-14~--| - Rif 1 (5x)
A|--------------|---------14----14----14~--------------12-14~--|
E|-0-0-0-0-0-...|-0x------------------------0x-----------------|

 Rif 2 (H5)
e|---------------------------------|
B|---------------------------------|
G|---7-7---9---7-------9-9-7-------|
D|---7-7-9-9-9-7-9~----9-9-7-7-9~--| - Rif 2 (2x)
A|-9-----9---9---9~--9-------7-9~--|
E|-7-----------------7-------------|


E5         G5   E5     G5
 Svojoj kceri mezimici
E5          G5   E5   G5
 Sretan put do Havaja
E5          G5  E5   G5
 Zeli zabrinuti tata
E5           G5   E5   G5
 Koji je skromno odgaja

Rif 2...
 Zahvalna rodbina

Svi blizi rodjaci

Jos jed.nom hvala mornaru

Za sverc u luci

...E5        G5  E5...
 ....Svom dragom sinu
Da ne pjesaci na faks
Mama daruje Mercedes
Za psihicki relaks

Rastavljenim roditeljima
Godisnjicu braka
Cesti.taju ostavljena djeca
I njihova baka

Solo - E5 G5 - 8x, H5 - 8x

...E5
 ....Svom dra.gom sinu...

...E5
...Na, na, na_________... - Fejdaut


Poslao: Sat-Ok | Komentara: 0 | Glasova: 0 | Ocjena: x | Print