atomsko skloniste - na kraju stoljeca

Poslao: Sat-Ok | Komentara: 0 | Glasova: 0 | Ocjena: x | Print
Pesma - Na Kraju Stoljeca
Izvodjac - Atomsko Skloniste
Transkripcija: Sat-Ok, cicirar@yahoo.com

(Veoma malo povisite stim)

Uvod - D5...

Rif 1
e|--------------------------------------------------------|
B|--------------------------------------------------------|
G|-3------------3-3----------3-3--------------------------|
D|-0--3p-0-3p-0-0-0--3p-0-3p-0-0--5p-0-3p-0----0-0-0------| - 4x
A|--------------------------------------------3b-----3p-0-|
E|--------------------------------------------------------|


D5
Molim
Da vec jednom dodje do razoruzanja,
Kako bi mladost
Zivjela bez crnih stanja.
    A5                          E5 A5
Dok ljubim tvoje preplasene oci,
I sam s.am preplasen
                    E5 A5
Zbog ljudske nemoci.
D5
Djevojko s kraja, dje.vojko s kraja
                                          A5
dvadesetog stoljeca, dvadesetog stoljeca.______

Solo - D5...A5...D5...(Rif 2)

Rif 2
e|--------------------------------------|
B|--------------------------------------|
G|-2--0--------0-2p-0-----2--0----7--5--|
D|-2--2---0-h2--------2---2--2----7--5--|
A|-0--0-------------------0--0----5--3--|
E|--------------------------------------|

e|--------------------------------------|
B|-----------------1--------------------|
G|-2--0--------0-2---2p-0-----2-3--4-6--|
D|-2--2---0-h2------------2---2-3--4-6--|
A|-0--0-----------------------0-1--2-4--|
E|--------------------------------------|

...Rif 1 - 2 x

D5...
Molim
Da vec je.dnom dodje do razoruzanja...

Koda - ...Rif 1...D#5     D5









Poslao: Sat-Ok | Komentara: 0 | Glasova: 0 | Ocjena: x | Print