e play - srescemo se neki drugi put

Poslao: milann | Komentara: 0 | Glasova: 0 | Ocjena: x | Print
Pesma:         Srescemo se neki drugi put
Izvodjac:       E - Play
Youtube:       https://www.youtube.com/watch?v=3rOlFnq6QDI
Transkripcija: milann




Uvod i strofe


eI--------7-----------7-----------7-----------------I
BI--------------------------------------------------I
GI-----7-----7-----7-----7-----7-----7--------------I
DI--------------------------5-----------------------I
AI--------------------------------------7--5--4-----I
EI--7-----------5--------------------------------5--I




eI--------7-----------7-----------7-----------------I
BI--------------------------------------------------I
GI-----7-----7-----7-----7-----7-----7--------------I
DI--------------------------5-----------------------I
AI--------------------------------------7--5--7--9--I
EI--7-----------5-----------------------------------I


Mini solo kroz uvod i posle refrena

eI------------------------------------------------------I
BI--15p14-------------------15p14-----------------------I
GI---------16~------14--16---------16-------------------I
DI--------------16---------------------16--14--12-------I
AI-------------------------------------------------14~--I
EI------------------------------------------------------I




eI-----------------------------------------/19--17-------I
BI--15p14-------------------15p14-------------------19\--I
GI---------16~------14--16---------16--14----------------I
DI--------------16---------------------------------------I
AI-------------------------------------------------------I
EI-------------------------------------------------------I


Refren

eI--7--7-7--7-7---5--5-5--5-5---3--3-3--3-3---5--5--5--5--I
BI--7--7-7--7-7---5--5-5--5-5---3--3-3--3-3---5--5--5--5--I
GI--7--7-7--7-7---6--6-6--6-6---4--4-4--4-4---6--6--6--6--I
DI--9--9-9--9-9---7--7-7--7-7---5--5-5--5-5---7--7--7--7--I
AI--9--9-9--9-9---7--7-7--7-7---5--5-5--5-5---7--7--7--7--I
EI--7--7-7--7-7---5--5-5--5-5---3--3-3--3-3---5--5--5--5--I


Mini solo kroz strofe

eI-----------------------------------------I
BI--3p2---------------3p2------------------I
GI-------4~-----2--4-------4---------------I
DI-----------4----------------4--2--0------I
AI-------------------------------------2~--I
EI-----------------------------------------I




eI-------------------------------/7--5-----I
BI--3p2---------------3p2---------------7\-I
GI-------4~-----2--4-------4--2------------I
DI-----------4-----------------------------I
AI-----------------------------------------I
EI-----------------------------------------I


Outro

   p.m.-------------------------------
e----------------------------------------------I
B----------------------------------------------I
G----------------------------------------------I
D----------------------------------------------I  4x
A----------4-4-44444-5-5-555-7-5-4-455---------I
E--7-7-7-7-------------------------------------I




   w/wah------------------------------
e----------------------------------------------I
B----------------------------------------------I
G----------------------------------------------I
D----------------------------------------------I  4x
A----------4-4-44444-5-5-555-7-5-4-455---------I
E--7-7-7-7-------------------------------------I




e----------------------------------------------I
B----------------------------------------------I
G----------------------------------------------I
D----------------------------------------------I  \
A----------4-4-44444-5-5-555-7-5-4-455---------I   \
E--7-7-7-7-------------------------------------I    \
                                                     \
                                                      \
                                                      /  2x
                                                     /
e----------------------------------------------I    /
B----------------------------------------------I   /
G----------------------------------------------I  /
D----------------------------------------------I
A----------7-7-77777-5-5-555-7-5-4-455---------I
E--7-7-7-7-------------------------------------I



Poslao: milann | Komentara: 0 | Glasova: 0 | Ocjena: x | Print