hari i eldin - tvoje je samo to sto das (solo i akordi)

Poslao: sdpod | Komentara: 0 | Glasova: 0 | Ocjena: x | Print
              Intro: 2x
         Gm          Cm              F                          D#
e|-----------|-------3------------------|---------------------------|
B|-------3-3-|-3-4-6---6-6-4-4-3-3------|---3-4-6-4-4-3-3-----------|
G|---3-5-----|---------------------5-5-5|-5---------------5-5-3-3--3|
D|-5---------|--------------------------|---------------------------|
A|-----------|--------------------------|---------------------------|
E|-----------|--------------------------|---------------------------|

         Cm              Gm                 Prelaz:
e|----------------------------|            |-------------------|
B|-----3-4-3-3-----------3-4-3|            |-------------------|
G|-3-5---------5-5-3-3-2------|            |---2--3---5--------|
D|----------------------------|            |-------------------|
A|----------------------------|            |-------------------|
E|----------------------------|            |-------------------|

Gm                    F
Kad se spusti na srce cisto

    D#                 D
Ono sto se samo cistom daje,

Gm                         F
Svakom drugom, pozeljet cu isto

      D#                D
Sto i meni jedna ljubav daje,

D#       F       Gm  D7
Skrivena od pogleda...

Refren:

Gm          Cm          F
Daj, kad mi u srce pogledas,

        B        D#
Da tamo nema nicega.

         Cm         D
Da nista nema, osim Tvoga imena.

Gm           Cm         F
Tu, na tvome pragu zaspala

      B         D#
Jedna dusa iskrena

       Cm           D
I samo ceka dan, da Ti lice ugleda...

Skrivena od oka Tvog,
Jednu tajnu tiho govori
Sve pokloni ljudima
Jer je tvoje samo to sto das
Iskreno, od srca...

Daj, kad mi u srce pogledas,
Da tamo nema nicega.
Da nista nema, osim Tvoga imena.
Tu, na tvome pragu zaspala
Jedna dusa iskrena
I samo ceka dan, da Ti lice ugleda.

Poslao: sdpod | Komentara: 0 | Glasova: 0 | Ocjena: x | Print