atomsko skloniste - zvao sam i miliciju

Poslao: roker | Komentara: 1 | Glasova: 1 | Ocjena: 5 | Print
poslao:roker

home: http://2akordi.net

atomsko skloniste: zvao sam i miliciju 1978

album:infarkt 1978


uvod:
   A
e-------------------------------------------------------
h-------------------------------------------------------
g-------------------------------------------------------
d-------------------------------------------------------
a--7-9-7---7-7-9-7--7-7-9-7-10-7-9--7-7-9-7-------------
e--5-5-5-x-5-5-5-5--5-5-5-5-5--5-5--5-5-5-5-------------

   D         E           A
--------------------------------------------------------
--------------------------------------------------------
--------------------------------------------------------2x
---7-7-9-7---9-9-11-9-----------------------------------
---5-5-5-5-x-7-7-7--7----7-7-9-7-10-7-9--7-7-9-7-10-7-9-
-------------------------5-5-5-5-5--5-5--5-5-5-5-5--5-5-


   A
mracna noc je davno pala, a ti si jos uvijek mala

   D                E                   A
zvao sam i miliciju da te traze i dovedu,

   A
kais vadim da proplaces,gdje si dosad kceri moja

   D                   E                     A
skime hodas ko te vuce da ne slusas svoga oca


prelaz:

e-----------------------
h-----------------------
g--2--2--2p0---2p0------
d--2--2------2-----2----2x
a--0--0-----------------
e-----------------------


refren:

   A                            C
   ne razumijem i ne shvacam,   pa i mi smo bili mladi
e---------------------------------------------------------------
h---------------------------------------------------------------
g--2--------------2p0---2p0-------------------------------------
d--2------------------2-----2---5--------------------2p0---2p0--
a--0----------------------------3------------------------2-----2
e---------------------------------------------------------------

   D                        E                                  A
   voljeli se               i plesali
----------------------------------------------------------------
----------------------------------------------------------------
--------------2p0---2p0----------------7b7-5-7-5p7h5-4-4p5h4----
----7-------------2-----2----9-------------------------------5/7
----5------------------------7----------------------------------
----------------------------------------------------------------


A                     C
pa i mi sm bili mladi i kaisa oprobali,

D                 E
i ponekad zakasnili
















 Komentari:
Poslao :: roker
u ostaku pjesme se gotovo sve manje vise ponavlja tako da nisam pisao ostatk teksta..skonta se to sve kada se pjesma slusa i uporedo skida sa taba :)...PEACE
Poslao: roker | Komentara: 1 | Glasova: 1 | Ocjena: 5 | Print