yu grupa - opasno(uvod)

Poslao: Beci | Komentara: 2 | Glasova: 1 | Ocjena: 4 | Print
Transkripcija:Stefan Bogdanovic - skinsiland92@gmail.com
Album        :Medju zvezdama
Pesma        :Opasno-Uvod



Gitara 1
-------------------------------------------------------
-7-8-7-8-------/7-8-7-8-------7-8-7-8------------------
---------7-9-----------7-9-9---------7-9---------------
-------------------------------------------------------
-------------------------------------------------------
-------------------------------------------------------

-------------------------------------------------------
-10/12-10-8-10-10b8-10-8-7-----------------------------
--------------------------7-9-9-7h9--------------------
-------------------------------------------------------
-------------------------------------------------------
-------------------------------------------------------
Gitara 2
-14-15-14-15------14-15-14-15----------14-15-14-15-----
------------15-17-------------15-17-17------------15-17
-------------------------------------------------------
-------------------------------------------------------
-------------------------------------------------------
-------------------------------------------------------

-17/19-17-15-17-17b15-17-15-14-------------------------
------------------------------15-17-17-15-17-----------
-------------------------------------------------------
-------------------------------------------------------
-------------------------------------------------------
-------------------------------------------------------




 Komentari:
Poslao :: N3ssaya
Dobro je, ali veŠ ima.
Poslao :: Beci
pa nisam video da ima ovamo u folderu yu grupe ova pesma... :S
Poslao: Beci | Komentara: 2 | Glasova: 1 | Ocjena: 4 | Print