amadeus - mozda(uvod)

Poslao: beginer | Komentara: 3 | Glasova: 0 | Ocjena: x | Print
Amadeus  Mozda(uvod)


   Em     C                              G        D
E/----------------------------------    -------------------------
H/--5--5--3-5-3-5--3--------------- 3x  -5---------8--5-3-5------
G/----------------------------------    -----4-2-4----------------

   Em     C                              G
E/----------------------------------    -------------------------
H/--5--5--3-5-3-5--3--------------- 3x  --5----------------------
G/----------------------------------    -----4-2-4-4-4-4---------

Em-C-G-D


Ljudi, ovo mi je prvi rad sa tablaturama.
Sve sam skidao po sluhu.
Sve pohvale i kritike su dobro dosle.
Hvala
 Komentari:
Poslao :: Doom
Uvod ide nesto u ovom fazonu koliko se ja secam,i mislim da ide za oktavu nize, a ti proveri.

E|------------------------------------------
B|-5--5--3--x-3-3--3--5-3-3--3------3-3--3--
G|------------------------------4-4---------
                                              
E|------------------------3-3--3-----3-2-2-2--
B|-5--5--3--5-3-3--3--3-5---------5-----------
G|--------------------------------------------

Poslao :: beginer
da, da, u pravu si. hvala puno. :)
Poslao :: Doom
Nema na cemu.:)
Poslao: beginer | Komentara: 3 | Glasova: 0 | Ocjena: x | Print