mortal kombat - evrovizija

Poslao: PjEkY | Komentara: 1 | Glasova: 5 | Ocjena: 3.4 | Print
Mortal Kombat - Evrovizija
Transkripcija: PjEkY (dzoni.car@gmail.com)


Riff x2
E|---------------------------------------------------------------------------------|
H|---------------------------------------------------------------------------------|
G|------------------5--------------------------------------5----7---5--7---5--4----|
D|---7---5--7---5---5----3---2--3---2--5----7---5--7---5---5----7---5--7---5--4----|
A|---7---5--7---5---3----3---2--3---2--5----7---5--7---5---3----5---3--5---3--2----|
E|---5---3--5---3--------1---0--1---0--3----5---3--5---3---------------------------|

Akordi (u sustini sve vreme idu petice)

Am
Doslo je vece kada stace na tu binu
C
Onaj kreten sto predstavlja nasu domovinu
G
Svi ga vole i o njemu svako danas prica,
F                   E
Njegovu pesmu slusa sve od babe do mladica
Am
Nije lako biti zvezda k’o sto svako lupa!
C
Sminkanje od cet’ri sata za tih par minuta,
G
Svakog dana paparaci, teretanu radi,
F                      E
Najteze je to sto mora tekst napamet znati

(slicno kao glavni riff)

A-G-A-G-C Lici mi na nekog klovna,
F-E-F-E-G Pusi kurac, jede govna!
A-G-A-G-C Bas bi’ hteo da ga lemam,
F-E-F-E-G Jer zivaca vise nemam!

                 E
Evrovizija mnogo ide mi na kurac,
       F                      G
Kad je odgledam ja znam zasto sam nadrkan!
Am                   E
Zeljko, Milan, Kon, Serifovic Maja,
       F           G             Am
Kad progutaju djon, bice nam do jaja!


Svi pogledi su uprti direktno u njega,
Iz komandnog staba motri Bregovic, Brega,
Dve, tri pevaljke da zabave seljake,
I jos po neki glumac, tek da ide mi na kurac!
Predstavnice nas, dal’ se drogiras?
Vracaj se u svoju rupu, nemoj da nas brukas!
Na nesrecu nasu, pustio je prvu notu,
Uzivo da gledamo bruku i sramotu!

Lici mi na nekog klovna,
Pusi kurac, jede govna!
Bas bi’ hteo da ga lemam,
Jer zivaca vise nemam !

Evrovizija mnogo ide mi na kurac,
Kad je odgledam ja znam zasto sam nadrkan!
Zeljko, Milan, Kon, Serifovic Maja,
Kad’ progutaju djon, bice nam do jaja!

Glasanje je pocelo, svima je sad frka,
Moramo pobediti da ne pukne bruka!
A nasem se pevacu iskreno bas jebe,
Drzavne pare je vec uzeo za sebe!
Pojacaj televizor, strucni ziri nesto kaze!
„…i nije nesto vasa pesma, lose su solaze!
Bolje Mortal Kombat veceras da je svir’o,
K’o sto Cola rece, nista ja tu ne bi dir’o.”

Sad se posran vraca kuci,
Sponzor ce ga motkom tuci!
Prebice ga kao kera,
Ko ga jebe, nek se tera!

Evrovizija mnogo ide mi na kurac,
Kad je odgledam ja znam zasto sam nadrkan!
Zeljko, Milan, Kon, Serifovic Maja,
Kad progutaju djon, bice nam do jaja!

Evrovizija ide mi na kurcev zivac,
Kad je celu odgledam, bijem k’o Zan Klod Van Dam!
Zeljko, Milan, Kon, Serifovic Maja,
Sladja, Bebi Dol, upaljac, Jugopetrol!

Solo (eurosong tema :@)

E|---------------9-------12--9--9--10--12-10-9-10-12-----------9-------------------|
H|---10---10-12------10-------------------------------12-10-12---12----------------|
G|---------------------------------------------------------------------------------|
D|---------------------------------------------------------------------------------|
A|---------------------------------------------------------------------------------|
E|---------------------------------------------------------------------------------|

E|----------------9-------12--9--9--10--12-9-10------------------------------------|
H|-10-10---10-12------10------------------------12----10---10~~~~------------------|
G|---------------------------------------------------------------------------------|
D|---------------------------------------------------------------------------------|
A|---------------------------------------------------------------------------------|
E|---------------------------------------------------------------------------------|
 Komentari:
Poslao :: Darko79
Neznam čemu ovakva ocena a rad je za 5?
Poslao: PjEkY | Komentara: 1 | Glasova: 5 | Ocjena: 3.4 | Print