elemental - iz dana u dan intro

Poslao: android | Komentara: 0 | Glasova: 1 | Ocjena: 1 | Print
´╗┐Kroz cijelu pjesmu se vrti Am - G - Em

E------------------------------------------------------------------------
B-------------------------1--0------------1--3--1--0---------------0-----
G-----2---2----------2----------------0---------------------------0------
D-----2---2-------2----------------0---------------------------2---------
A-----0---0----0----------------2-------2------------------2-------------
E----------------------------3---------------------------0---------------

E----------------------3-------------------------------------------------
B----------------1----1----------------------------1---0-----------------
G---2-------2-------2-----2--0--2-----------2------------------0---------
D---2----2------------------------2--------2------------------0----------
A----0------------------------------0----0------------------2------------
E--------------------------------------------------------3---------------

E------------------------------------------------------------3-----------
B---1--3--1--0--------------------0------------------1---1---------------
G-------------------------------0--------2--------2-------2--------------
D---------------------------2------------2----2--------------------------
A---2-------------------2--------------- 0-------------------------------
E------------------0-----------------------------------------------------
Poslao: android | Komentara: 0 | Glasova: 1 | Ocjena: 1 | Print