darkwood dub - oblak hitre senke

Poslao: izgubljen | Komentara: 0 | Glasova: 2 | Ocjena: 3 | Print
Darkwood Dub - Oblak hitre senke
Album: O danima (2004)
Transkripcija: izgubljen (djole_kris@yahoo.com)



Bas, uvod:
D||----------------------------|
A||-6-6-6-8-8-----------6------|
E||-----------6-6-6p8-x---6-8--|



Uvod:

    G#5*      B*        C/G#*   B*
e||---------|---------|-----3-|---------|
H||---(1)-4-|---3-3---|---1---|---3-3---|
G||-1-------|-3-----3-|-1-----|-3-----3-|
D||---------|---------|-------|---------|
A||---------|---------|-------|---------|
E||---------|---------|-------|---------|

    G#5*      B*


C/G#*        B*
 Prati oblak hitre senke
G#5*         B*
 Misli da je vreme da krene
C/G#*         B*
 Misli dokle secanje seze
G#5*              B*
 U divljini trazi ohrabrenje
C/G#*        B*
 Sedam brda, sedam mora
G#5*       B*
 Iza reci, preko broja
C/G#*      B*
 Malo toga da se doda
G#5*        B*
 Krajem oka mozda spozna
C/G#*        B*
 Sedam brda, sedam mora
G#5*       B*
 Iza reci, preko broja
C/G#*       B*
 Malo toga da se doda
G#5*        B*
 Krajem oka mozda spozna


C5 B5 D*               \
        Mozda sluti     \ 2
C5 B5 D*                / x
        Mozda zna      /


< Prelaz:  C/G#* B*  G#5*  B*  > 2x >

 Prati oblak hitre senke
 Misli da je vreme da krene
 Misli dokle secanje seze
 U divljini trazi ohrabrenje


 Mozda sluti    \ 4
 Mozda zna      / x


< Prelaz: 1/2 Bas uvoda >

< Solo, do kraja pesme >




D*: x53xxx

Poslao: izgubljen | Komentara: 0 | Glasova: 2 | Ocjena: 3 | Print