nedzad salkovic - kad ja podjoh na bembasu

Poslao: Čivija | Komentara: 1 | Glasova: 6 | Ocjena: 5 | Print
Fm  C7 Fm C7 Fm C7 Fm D#         D#7      G# F7
Kad ja podjoh na Bembasu, na Bembasu, na vodu,
Bm     C7  Fm     C# Bm  C7           Fm C7 Fm (F7)
ja povedoh bijelo janje, bijelo janje sa sobom...   / 2x



Fm  C7 Fm C7 Fm C7 Fm D#         D#7     G#  F7
Sve djevojke Bembasanke  na vratima stajahu,
Bm     C7 Fm   C# Bm C7         Fm C7 Fm (F7)
samo moja mila draga na demirli pendzeru...   / 2x



Fm C7  Fm C7 Fm C7 Fm D#         D#7      G#  F7
Ja joj rekoh dobro vece, dobro vece djevojce,
Bm    C7 Fm     C# Bm C7          Fm C7 Fm (F7)
ona meni dodj' dovece, dodj' dovece dilberce...  / 2x



Fm C7 Fm C7 Fm C7 Fm D#          D#7      G# F7
Ja ne odoh  istu  vecer, vec ja odoh sutradan,
Bm    C7 Fm    C# Bm C7           Fm C7 Fm (F7)
ali moja mila, draga, za drugog se udala...     / 2x

 Komentari:
Poslao :: Johnny035

Evo, i tablatura. Prelaz koji sam obeležio je neka moja improvizacija, može se svirati i bez njega, samo je potrebno produžiti poslednji ton u 7. taktu.

   Bm                  C7    Fm         Db              Bm
E|--------|----------------|---------|--------------------|
H|--------|----------------|---------|--------------------|
G|--------|----8-----------|---------|--------------------|
D|-8---10-|-11---11-10-8---|-------8-|-10-11-10-8---------|
A|--------|----------------|-11------|------------11-10-8-|
E|--------|----------------|---------|--------------------|

                                        (prelaz)
   C7                     Fm   C7  Fm        F7
E|----------|-----------|-------------|----------------|
H|----------|-----------|-------------|----------------|
G|----------|-----------|-------------|----------------|
D|----------|--8---10---|-------------|--------------8-|
A|-10----11-|-----------|-11---10---8-|-8----8-10-11---|
E|----------|-----------|-------------|---11-----------|

   Bm                C7    Fm        Db           Bm
E|------8-|-9-11-9-8------|--------|-8-9-8-----------|
H|-11-----|----------11---|-9---11-|-------11-9-8----|
G|--------|---------------|--------|--------------10-|
D|--------|---------------|--------|-----------------|
A|--------|---------------|--------|-----------------|
E|--------|---------------|--------|-----------------|

   C7                 Fm   C7  Fm                                       
                                ________
E|-------|-------8---|------------|---------|
H|-8---9-|--11-------|-9---8------|---------|
G|-------|-----------|---------10-|---10----|
D|-------|-----------|------------|---------|
A|-------|-----------|------------|---------|
E|-------|-----------|------------|---------|


Poslao: Čivija | Komentara: 1 | Glasova: 6 | Ocjena: 5 | Print