block out - elektroliza

Poslao: izgubljen | Komentara: 2 | Glasova: 1 | Ocjena: 1 | Print
Block Out - Elektro-Liza
Transkripcija: izgubljen (djole_kris@yahoo.com)



  Riff 1                    Riff 2
e||------------------------||--------------------------|
H||------------------------||--------------------------|
G||------------------------||--------------------------|
D||-2-2--------------------||-2-2-2--------------------|
A||-2-2--5/7-5-7-7b-7b-7b--||-2-2-2--5/7-5-7-7b-7b-7b--|
E||-0-0--------------------||-0-0-0--------------------|




      E5*                               F5
e||-----------------------------------------------------------|
H||-----------------------------------------------------------|
G||-----------------------------------------------------------|
D||-7/9-9-x-x-x-9-9x--x-x-x-9-9x--x-x-x-10-10x--x-x-x-10-10x--|
A||-5/7-7-x-x-x-7-7x--x-x-x-7-7x--x-x-x-8--8x---x-x-x-8--8x---|
E||-----------------------------------------------------------|





Uvod: Riff 1  Riff 1  Riff 2  Riff 1  E5
      E5* F5*   > 4x   E5
      D   C     > 4x



Riff 1          Riff 1
   Block Out je trebao da bude glavni bend
                                      Riff 2
   Ali je ispalo da su ostali u senci svoje predgrupe.

                      Riff 2
   Zapravo, meni nije jasno ni sta to oni sviraju
                                                  E5~
   Zapravo, meni nije jasno ni sta to oni sviraju
   Zapravo, meni nije jasno ni sta to oni sviraju

E5*
   Zapravo, meni nije jasno ni sta to oni sviraju


 E5  D5  > 2x
 D  C    > 4x


Riff 1   > 2x

Riff 2
   Gradski rok sa Heavy elementima

Riff 1

  E5~
   Gradski rok sa Heavy elementima
                               E5*  F5*
   Ali je sve to zvucalo jako  pocetnicki.

E5* F5* > 3x

D  C    > 4x

Riff 1

Riff 1                                   Riff 2
   Zbog ove slabosti najbolje bi bilo da na sledecem koncertu
   Zamene svoje mesto sa svojom predgupom.

Riff1

 E5~
   Zapravo, meni nije jasno ni sta to oni sviraju
  B5~
   Gradski rok sa Heavy elementima
  E5~
   Zapravo, meni nije jasno ni sta to oni sviraju
  B5~
   Gradski rok sa Heavy elementima

 E5~

 B5~
   Gradski rok sa Heavy elementima
 E5~
   Gradski rok sa Heavy elementima

 B5~

 E5~ B5~

   Ali je sve to zvucalo veoma pocetnicki.




 Komentari:
Poslao :: ledolomac
lalalalala....
tek da dopisem nesto.
Poslao :: vvuujjaa
ako ako, da nebi pomislio da je plagijat :D
Poslao: izgubljen | Komentara: 2 | Glasova: 1 | Ocjena: 1 | Print