hladno pivo - moze (intro + solo)

Poslao: keko13 | Komentara: 3 | Glasova: 3 | Ocjena: 5 | Print
   ###                            ###
   #       Hladno Pivo - Moze       #
   #                                #
   #    by: keko13 @ 2akordi.net   #
   ###                            ###

INTRO:
e|-----------------|-----------------|-------------------------------
B|-----------------|-----------------|-------------------------------
G|-----------------|-----------------|-------------------------------
D|----0---0h2p0----|----4---4h5p4----|-------------------------------
A|--2---2-------0--|--5---5-------0--|----4---4h5p4---4-4---4h5p4----
E|-----------------|-----------------|--5---5-------5-----5-------5--
  \________________x3_______________/

- intro se ponavlja kroz cijelu pjesmu, s malim varijacijama

SOLO 1 (1:31 - 1:45)
e|------------------------|-----------------------
B|------------------------|-----------------------
G|------------------------|-----------------------
D|--7-7/12-11-9-7--7---7--|--7-9-7-----7-7-9-7----
A|-------------------9----|--------7-----------9--
E|------------------------|-----------------------
  \__________x3__________/


SOLO 2 (2:34 - 3:04)
e|------------------------------|---------------------------------
B|------------------------------|----7---7h8p7-------7---7h8p7----
G|------------------------------|---------------------------------
D|--7--7/9--9--9/11--11--11/12--|--9---9-------9---7---7-------7--
A|--7--7/9--9--9/11--11--11/12--|---------------------------------
E|------------------------------|---------------------------------
                                 \_______________x3______________/

e|-----------------------------------|--10-10-10-10-10-10-10-10-10h12p10--------
B|-----------------------------------|--12-12-12-12-12-10-12-12----------12-10--
G|----6------7-------9---------------|------------------------------------------
D|--7---7--9---9--11---11--12-12-12--|------------------------------------------
A|-----------------------------------|------------------------------------------
E|-----------------------------------|------------------------------------------
                                      \____________________x3__________________/

e|---9--9--9---9--9--9--10-10-10--12-12-12--
B|--10-10-10--10-10-10--12-12-12--10-10-10--
G|------------------------------------------
D|------------------------------------------
A|------------------------------------------
E|------------------------------------------

____________________


h  - hammer on
p  - pull of
/  - slide up


 Komentari:
Poslao :: keko13
Dodatak na vascevu transkripciju ritam dijela pjesme
Poslao :: vasac
Svaka cast ! ! !
Poslao :: doravec
Odlichno!!
Poslao: keko13 | Komentara: 3 | Glasova: 3 | Ocjena: 5 | Print