riblja corba(rajko kojic) - ne budi me bez razloga

Poslao: Jova | Komentara: 4 | Glasova: 1 | Ocjena: 5 | Print
Intro 2x
 F#5  G5  A5     F#5 G5 D5
E------------------------------||
H------------------------------||
G------------------------7-----||
D-4---5---7------4---5---7-----||
A-4---5---7------4---5---5-----||
E-2---3---5------2---3---------||



Bass,a moze i da se svira gitara pa Palm Mute
E------------------------------
H------------------------------
G------------------------------
D------------------------------
A------------------------5-----
E-5--5-7-5-2---2--3-3-5--------

E------------------------------||
H------------------------------||
G------------------------------||
D------------------------------||
A------------------------------||
E-5--5-7-5-2---3--3-5-5---2----|| tako se svira i strofa



Stigao sam kuci umoran k'o pas
dosadnim tramvajem sto staje svaki cas
napolju je vec pocinjao dan
ugasio sam pljugu i otkljucao stan    F#5 G5 A5 D5

prelaz...
E----------------------||
H----------------------||
G----------------------||
D-7h9p7----------------||
A--------9-------------||
E-------------10-------||


Usao sam tiho, ti si spavala
glava mi je teska kao Avala
u krevet kraj tebe sam se smestio
i za dva minuta onesvestio



   D5      H5      D5
Ne budi me bez razloga
   D5      H5  D5
ne ustajem pre pola dva
   D5      H5  D5
ne budi me bez razloga
               A5     D5
postedi me bar u snovima

E-15b-(17)--(17)r 15--14~-||
H-------------------------||
G-------------------------|| posle 1. refrena
D-------------------------||
A-------------------------||
E-------------------------||

E-12-17b-(19)--(19)r 17--15--14~--||
H---------------------------------||
G---------------------------------|| posle 2. refrena
D---------------------------------||
A---------------------------------||
E---------------------------------||


Kad sam se probudio 'mesto dorucka
na stolu je bila tvoja poruka
znao sam sta pise i bez citanja
ne mozes da trpis moja skitanja

Ovih dana opet necu sloviti
treba sada novu dragu loviti
svake noci u kafanu sedecu
dok ne nadjem sebi ljubav sledecu.

   D5      H5      D5
Ne budi me bez razloga
   D5      H5  D5
ne ustajem pre pola dva
   D5      H5  D5
ne budi me bez razloga
               A5     D5
postedi me bar u snovima

E-14b-(15)--14b-(15)------||
H-------------------------||
G-------------------------|| posle 3. refrena
D-------------------------||
A-------------------------||
E-------------------------||

E-15b-(17)----15b-(17)------------||
H---------------------------------||
G---------------------------------|| posle 4. refrena
D---------------------------------||
A---------------------------------||
E---------------------------------||

Ne budi me bez razloga...


 Komentari:
Poslao :: djacic
Dobra Jova...
Ovo je pesma sa solo albuma Rajka Kojića u kojoj je Bora Đorđević otpevao vokal, dakle nije Riblja Čorba...
Poslao :: Jova
zato sam stavio u zagradu rajko kojic ;)
Poslao :: Doom
Ajd uradi u GP.
Poslao :: Jova
ok probacu ako me ne mrzi...
Poslao: Jova | Komentara: 4 | Glasova: 1 | Ocjena: 5 | Print