teatar - pesma

Poslao: Devlas | Komentara: 5 | Glasova: 3 | Ocjena: 4.67 | Print
Vlada


Pesma

Uvod ritam Am C F G Am

rif
e--------------------------------------------------------
H--------5---5----8---5---5------------------------------
G----------7------------7------7b-7b-7b-7b--7b-7-5-------
D----7----------------------------------------------7----
A--------------------------------------------------------
E--------------------------------------------------------

Am
Sunce vidi zemlju celu
C
drvo kucu travu cesmu
F           G
pesnik vidi psa na selu
          Am
a pas ne veselu pesmu

Am
pesma tuzna pesma ruzna
C
nista niej osetila
F             G
zbog toga mi nije nuzna
              Am
otkad si me pregazila


rifovi  F G   G A x2

Am
A ja vidim noge tvoje
C
kako gaze srce moje
F           G
srce moje gotovo je
           Am
crveno je krvavo je



riff sa pocetka pa sve ponovo :-)

Ovo mi je prvi rad na sajtu pa molim ocenite kudite dobro
ce mi doci.
 Komentari:
Poslao :: Devlas
glup sam mnogo, nisam dodao onaj drugi deo rifa

e----------------------------8p5--8p5--8p5--8b-8b----------
H------5---5---8--5---5---------8----8----8---------8-8p5---
G--------7----------7--------------------------------------7--
D---7---------------------------------------------------------7
A-------------------------------------------------------------
E------------------------------------------------------------
Poslao :: izgubljen
Nisi glup. Zuris samo!
Sad lepo zategni transkripciju, napravi sve kako treba da izgleda i izmedju [ tab ] [ /tab ] nalepi rad i posalji ponovo u komentaru ovog rada.

To tab dobijas tako sto u desnom uglu iznad polja u kome pises komentara rada kliknes na ono "tab".

Sve ti je jasno.

Dobrodosao!
Poslao :: Devlas

Uvod ritam Am C F G Am

rif  

Am                C             F        G          Am
e--------------------------------------------------------
H--------5---5----8---5---5------------------------------
G----------7------------7------7b-7b-7b-7b--7b-7-5-------
D----7----------------------------------------------7----
A--------------------------------------------------------
E--------------------------------------------------------



e----------------------------8p5--8p5--8p5--8b-8b----------
H------5---5---8--5---5---------8----8----8---------8-8p5---
G--------7----------7--------------------------------------7--
D---7---------------------------------------------------------7
A-------------------------------------------------------------
E------------------------------------------------------------


Am
Sunce vidi zemlju celu
C
drvo kucu travu cesmu
F           G   
pesnik vidi psa na selu
          Am
a pas ne veselu pesmu

Am
pesma tuzna pesma ruzna
C
nista niej osetila
F             G
zbog toga mi nije nuzna 
              Am 
otkad si me pregazila


rifovi  F G   G A x2

Am
A ja vidim noge tvoje
C
kako gaze srce moje
F           G
srce moje gotovo je 
           Am

Poslao :: Devlas
ako sam nesto skontao lose, jbg obrisi rad pa cu ga ja opet postaviti
Poslao :: izgubljen
:)

Ma ja sam samo obican clan (izgubljen, znas), nemam ja te mogucnosti da brisem radove. Ja samo kad ne znam sta da radim, glumim clana tima i pomazem deci.
Poslao: Devlas | Komentara: 5 | Glasova: 3 | Ocjena: 4.67 | Print