darkwood dub - supernova (pokusaj 2)

Poslao: izgubljen | Komentara: 11 | Glasova: 4 | Ocjena: 3.25 | Print
Darkwood Dub - Supernova
Album: Elektropionir (2000)
Transkripcija: izgubljen (djole_kris@yahoo.com)


Uvod (4x):


e||-12-9---------------------3h5----------------|
H||------12-10-10h12-12----3--------3-0-2/5\2---|
G||----------------------4--------0-----------2-|
D||---------------------------------------------|
A||---------------------------------------------|
E||---------------------------------------------|


A
 Pusti svaku rec u vetar
G6                   A
 Zaboravu da se dopadne
(A)
 Dovoljno je za pocetak
G6                     A
 Vise ne postoje prepreke
(A)                 G6
 Iza zatvorenog oka  cuvam sliku
        A
 Ti i ja lezimo na ledjima
G6
 Smejemo se bez razloga


A G6 Em  > 2x


<Uvod 4x>


 Pusti svaku rec u vetar
 Zaboravu da se dopadne
 Dovoljno je za pocetak
 Vise ne postoje prepreke
 Iza zatvorenog oka cuvam sliku
 Ti i ja lezimo na ledjima
 Smejemo se bez razloga


A                        \
 Dovoljno je za pocetak   \ 4
G6                        / x
 Dovoljno za kraj        /


<Solo>


<Uvod 4x>


 Pusti svaku rec u vetar
 Zaboravu da se dopadne
 Dovoljno je za pocetak
 Vise ne postoje prepreke
 Iza zatvorenog oka cuvam sliku
 Ti i ja lezimo na ledjima
 Smejemo se bez razloga


 Dovoljno je za pocetak   \ 4
 Dovoljno za kraj         / x


A G6 Em   >2x


 Dovoljno je za pocetak   \ 4
 Dovoljno za kraj         / x


<Solo za kraj>



A:  xx7650
G6: xx5430
Em: xx5400
 Komentari:
Poslao :: izgubljen
Znam da bi po pravilu, ako saljem ispravku rada, da okacim u komentarima vec poslatog rada, ali ono se zagubilo na ko zna kojoj strani, pa kacim sveze da bi bilo aktuelno.

Nesto sam malo prepravio, pa molim vas sud.
Ima sematski prikaz akorda dole, pa probajte tako da svirate, mozda je malo bolje nego prosli put.

Sve sugestije su dobrodosle. :)

Unapred hvala!
Poslao :: R.J.Rays
Ja bi uvod ovako odsvirao
a po ovom tvom tabu ne bih se snashao priznajem

E|------10-7------------------------------------
H|-----------8-8/12------8-10-------8------10---
G|--9AH----------------9-----------7------9-----
D|--x-----------------------------9---9/11------
A|----------------------------------------------
E|----------------------------------------------

Poslao :: izgubljen
hvala, ali tab nije problem.
imam ih nekoliko zapisanih, ovo je jedan od opicija i nije najsrecnije zapisana, priznajem.

ali akordi su mi bitniji.
Poslao :: izgubljen
P.S: Sta je "AH"?
Poslao :: DjordjeRnR
artificial harmonic
Poslao :: izgubljen

e||-12-9-----------------------------------------------|
H||------12-10-10h12-12----8h10------------------------|
G||-----------------------7----------------------------|
D||----------------------9-----------12-9-11/1411-----|
A||-----------------------------7/10---------------12--|
E||----------------------------------------------------|


@DjordjeRnR
Hvala, ali ne razumem ti se ja u to. :)))
Poslao :: R.J.Rays
Od koje verzije ti skidash ovaj uvod ovako?
Poslao :: izgubljen
Mozda mi MP3 preskace :)
Nemam, pojma. Meni moje ovo ovako zvuci, ne garantujem da je tacno. (jedino sto bih mogao da dodam u prvom tabu je na H zici 0 pre one poslednje dvojke).
Hvala u svakom slucaju na pomoci.
Poslao :: NEred_source

E||-12-9-----------------------------------------------|
H||------12-10-10h12-12------8h10-----3-------5--------|
G||------------------------7-------------4/6-----6-----|
D||----------------------9----------5---------------7--|
A||----------------------------------------------------|
E||----------------------------------------------------|


Eto ja sam ti ispravio sam deo sola koji nisi dobro zapisao. Pozz
Poslao :: izgubljen
E hvala, pa ispade da sam samo onaj slajd na H(: 2/5/2) promasio, sve ostalo je manje vise to.

Hvala puno!
Poslao :: tarik
Svaka cast na trudu, nisu bitne greskice, ko zna, lako ce se snac i ispravit.. :) 5
Poslao: izgubljen | Komentara: 11 | Glasova: 4 | Ocjena: 3.25 | Print