the bambi molesters - sweet spot

Poslao: keko13 | Komentara: 0 | Glasova: 0 | Ocjena: x | Print
     ###                                  ###
     #   The Bambi Molesters - Sweet Spot   #
     #                                      #
     #    by: keko13 @ 2akordi.net         #
     ###                                  ###


  UVOD  (0:00 - 0:04)
    PM................................
e|------7-6------7-6------7-6------7-6--
B|----7--------7--------7--------7------
G|--8--------8--------8--------8--------
D|--------------------------------------
A|--------------------------------------
E|--------------------------------------

  LEAD  (0:04 - 0:25)
e|---7---|---------------------0--|--6-6--------------
B|---9---|---------4-----4-----0--|------5-5----------
G|---8---|-------4---3-----3---1--|----------6-6------
D|---9---|-----6-------------4-2--|--------------(8\)-
A|-------|--6------------------2--|-------------------
E|-------|---------------------0--|-------------------
  \__x2_/ \_____________________x2___________________/

  - ton u zagradi se ne svira drugi put

  RITAM
    PM...............................................................
e|------7-6------7-6------7-6---7-6--|------9---12-----------14--14----
B|----7--------7--------7------------|----9---9--9--------11-11--11----
G|--8--------8--------8--------------|--9----------9----11-----11--11--
D|-----------------------------------|---------------------------------
A|-----------------------------------|---------------------------------
E|-----------------------------------|---------------------------------

  - ritam svira ovakav uzorak kroz cijelu pjesmu (osim u refrenima), samo se
    tonalitet mijenja

  LEAD  (0:26 - 0:32)
e|--11-11-12-11----|--------------------|------------------
B|--12---------12--|--12----------------|-----12--12--12---
G|--11-------------|----11--------------|------------------
D|-----------------|------13-14-13--13--|--/14--13--11--9--
A|-----------------|--------------14----|------------------
E|-----------------|--------------------|------------------

  LEAD  (0:33 - 0:40)                      PM.....................
e|--11-11-12-11----|--------------------|---------------------------
B|--12---------12--|--12----------------|---------------------------
G|--11-------------|----11--------------|--11-11-11-11--------------
D|-----------------|------13-14-13--13--|--14-14-13-13-11-11--------
A|-----------------|--------------14----|--------------------14-13--
E|-----------------|--------------------|---------------------------
 |RITAM            |                    |
 |  B              |  E                 |  PM.....................
e|--7--------------|--0-----------------|---------------------------
B|--7--------------|--0-----------------|---------------------------
G|--8--------------|--1-----------------|--------------11-----------
D|--9--------------|--2-----------------|-----------14----14-11-----
A|--9--------------|--2-----------------|--13-13-13-------------13--
E|--7--------------|--0-----------------|---------------------------

  - ovaj uzorak se ponavlja 3 puta, samo se tonalitet svaki put snizava za ton i pol.
  - pjesma krece iz B, drugo ponavljanje je iz G#, a trece iz F

    (1:47 - 2:00)
e|--------------------------|---------------------------------
B|----------------5-6-8/10--|-------------5---------5-6-8/10--
G|--5-5-7-5---7-7-----------|--5---5-7-5----5---7-7-----------
D|--------------------------|----7----------------------------
A|--------------------------|---------------------------------
E|--------------------------|---------------------------------

    (2:01 - 2:16)
e|--5-----------------------------------|---5-------
B|----5-----------------------5-6-8/10--|-----5-----
G|-------5---5-7-5----5-5-7-7-----------|-------5---
D|---------7--------7-------------------|-----------
A|--------------------------------------|-----------
E|--------------------------------------|-----------
  \_________________x2_________________/

    (2:17 - 2:24)
    C5                  E5          F#5
    PM.....................................
e|-------------------|-----------|-----------
B|-------------------|-----------|-----------
G|-------------------|-----------|-----------
D|--5-5-5-5-5-5-5-5--|--2-2-2-2--|--4-4-4-4--
A|--3-3-3-3-3-3-3-3--|--2-2-2-2--|--4-4-4-4--
E|-------------------|-----------|-----------
  \_______x2________/ \____x2___/ \____x2___/

    (2:25 - 2:38)
    B              D#               E                             tr~~~~~~~
e|--------------|--6------6-7-6--|--7------7-7/10-10-9-7-------|--------------
B|-------9-7----|--8----8--------|--9----9---------------9--7--|--11----------
G|-----8-----8--|--8--8----------|--9--9-----------------------|----11--------
D|--9-----------|--8-------------|--9--------------------------|------14-11/--
A|--------------|--6-------------|--7--------------------------|--------------
E|--------------|----------------|-----------------------------|--------------

    (2:39 - 2:46)
e|--11-11-12-11----|-------------|------------------------
B|--12---------12--|--12---------|------------------------
G|--11-------------|----11-------|--11-11-----------------
D|-----------------|------13-14--|--------14-14-11-11-----
A|-----------------|-------------|--------------------13--
E|-----------------|-------------|------------------------

    (2:47 - 2:53)                   PM.....................
e|--11-11-12-11----|-------------|---------------------------
B|--12---------12--|--12---------|---------------------------
G|--11-------------|----11-------|---------------------------
D|-----------------|------13-14--|--14-14-13-13-11-11--------
A|-----------------|-------------|--------------------14-13--
E|-----------------|-------------|---------------------------

  LEAD  (2:54 - 3:08)
e|--------------------------------------|--------------------|--------------------
B|------9-7------9-7------9-7------9-7--|------9-7------9-7--|------9-7------9-7--
G|----8--------8--------8--------8------|----8--------8------|----8--------8------
D|--9--------9--------9--------9--------|--9--------9--------|--9--------9--------
A|--------------------------------------|--------------------|--------------------
E|--------------------------------------|--------------------|--------------------
 |                                      |                    |
 |RITAM                                 |                    |
e|--7-----------------------------------|--7-----------------|--11----------------
B|--7-----------------------------------|--7-----------------|--12----------------
G|--8-----------------------------------|--8-----------------|--11----------------
D|--9-----------------------------------|--9-----------------|--------------------
A|--9-----------------------------------|--------------------|--------------------
E|--7-----------------------------------|--------------------|--------------------


B    x 2 4 4 4 2
E    0 2 2 1 0 0
C5   x 3 5 5 x x
E5   0 2 2 x x x
F#5  2 4 4 x x x
D#   x 6 8 8 8 6

PM.. - palm mute
\    - slide down
/    - slide up
tr~~ - trill


Poslao: keko13 | Komentara: 0 | Glasova: 0 | Ocjena: x | Print