boban zdravkovic - sve ljubavi moje

Poslao: Čivija | Komentara: 4 | Glasova: 1 | Ocjena: 5 | Print
F#m     C#7     F#m                  Bm
Ugledah devojku svoju kako sa drugim ide,
               F#m     D           C#7     F#m
A ja sam zeleo jedno - da je drugi sa mnom vide. /2x

        F#m   F#7     Bm   E      E7     A
REFREN:   Sve ljubavi moje suvise kratko traju,
                            Bm     C#7                F#m
          ili ja ne znam da volim, ili to drugi bolje znaju. (2x)



F#m        C#7  F#m                     Bm
Posljednje dane srece skrile su jesenje kise,
                 F#m   D        C#7    F#m
jos juce bila si moja, i nikad, nikada vise. /2x

        F#m   F#7     Bm   E      E7     A
REFREN:   Sve ljubavi moje suvise kratko traju,
                            Bm     C#7                F#m
          ili ja ne znam da volim, ili to drugi bolje znaju. (2x)



F#m  C#7    F#m                Bm
Uvek kad je vidim, meni usne zaneme,
                F#m     D      C#7  F#m
pogledi kada se sretnu, iz oka suza krene. /2x

        F#m   F#7     Bm   E      E7     A
REFREN:   Sve ljubavi moje suvise kratko traju,
                            Bm     C#7                F#m
          ili ja ne znam da volim, ili to drugi bolje znaju. (2x)

 Komentari:
Poslao :: steal
Nije iz orginala i nisu dobri akordi.
Poslao :: Johnny035
Hej, steal, da ti kažem samo da je i Čivija profesionalni muzičar (čini mi se da je to napisao u komentarima na jednom radu) i da on verovatno skida pesme onako kako ih peva, što znači da možda on ovu pesmu peva malo niže. Neko je napisao na jednom prethodnom radu, koji je izbrisan da je original i G#-mola. I ja mislim isto.

To bi možda trebalo da izgleda ovako:

Uvod:
E|----------------|--------------|
H|----------------|--------------|
G|--------------6-|------8-6-----|
D|-6--6-9--8--8---|-9--9---------|
A|----------------|--------------|
E|----------------|--------------|

E|-----------------|-----------------|
H|-7-9-7-9-7-------|-----------------|
G|-----------9-8-6-|-9-6-8-9-8-6-----|
D|-----------------|-------------9-8-|
A|-----------------|-----------------|
E|-----------------|-----------------|

E|----------------|--------------|
H|----------------|--------------|
G|--------------6-|------6-8-----|
D|-6--6-9--8--8---|-9--9---------|
A|----------------|--------------|
E|----------------|--------------|


E|---------------6-|-7-6--------------|
H|-------7-9-7-7---|-----9-7-9------7-|
G|-9-8-9-----------|------------8-9---|
D|-----------------|------------------|
A|-----------------|------------------|
E|-----------------|------------------|

g#m     D#7       g#m        D#7     g#m
Ugledah devojku svoju kako sa drugim ide,
g#m            c#m      E           D#7     
A ja sam zeleo ludo - da je drugi sa mnom vide. /2x

Ref:
g#m   G#7    c#m   F#    F#7    H
Sve ljubavi moje suvise kratko traju,
g#m               c#m      D#7             g#m
Ili ja ne znam da volim, ili to drugi bolje znaju. (2x)

Poslao :: Johnny035
U poslednjem delu uvoda sam pogrešno na jednom mestu stavio poziciju 7 nas drugoj žici umesto 9.


E|---------------6-|-7-6--------------|
H|-------7-9-7-9---|-----9-7-9------7-|
G|-9-8-9-----------|------------8-9---|
D|-----------------|------------------|
A|-----------------|------------------|
E|-----------------|------------------|

Poslao :: Johnny035
U poslednjem delu uvoda sam pogrešno na jednom mestu stavio poziciju 7 nas drugoj žici umesto 9.

E|---------------6-|-7-6--------------|
H|-------7-9-7-9---|-----9-7-9------7-|
G|-9-8-9-----------|------------8-9---|
D|-----------------|------------------|
A|-----------------|------------------|
E|-----------------|------------------|

Poslao: Čivija | Komentara: 4 | Glasova: 1 | Ocjena: 5 | Print