the bambi molesters - invasion of the reverb snatchers

Poslao: keko13 | Komentara: 0 | Glasova: 0 | Ocjena: x | Print
     ###                                                        ###
     #   The Bambi Molesters - Invasion of the Reverb Snatchers   #
     #                                                            #
     #    by: keko13 @ 2akordi.net                               #
     ###                                                        ###


        tr~~~~~~~~~~~~~~~~~~~~~~~~~~~~~~~~~
e|-----------------------------|---------------
B|-----------------------------|---------------
G|-----------------------------|---------------
D|-----------------------------|---------------
A|--------------6--------------|--7-7-6-6-4----
E|--2-2/4-4-4-4---7-4-0-0-0-0--|------------2--
  \____________________x4_____________________/


e|-----11-11------------|----11--------------
B|-----12-12------9--9--|--12----9--9--9--9--
G|--13-13-13---9--9--9--|--------9--9--9--9--
D|--13-13-13---9--9--9--|--------9--9--9--9--
A|--11-11-11---7--7--7--|--------7--7--7--7--
E|----------------------|--------------------

 |2x
e|-----------------|------------|---------4--|--4-4-4-4-4/11-11--|--11---------------
B|o----------------|------------|------7--5--|--5-5-5-5-5/12-12--|--12--14-12-14-12--
G|-----------------|------------|----8-------|-------------------|--13---------------
D|-----------------|---------6--|--6---------|-------------------|-------------------
A|o--6--6----------|----6-9-----|------------|-------------------|-------------------
E|--------9-7-9-7--|--7---------|------------|-------------------|-------------------
 |

e|--------------|--------------|------------------------|-------------
B|--------------|--------------|--11-12-----------------|-------------
G|--13-11-------|--------------|-------12-13------------|-------------
D|--14---14-13--|--13-11-------|------------13-14-------|-------------
A|--------------|-------14-11--|-----------------14-13--|--13-11-9-7--
E|--------------|--------------|------------------------|-------------

                                                                                  |
e|-------------------------------|-----------------|----------------|---------4---|
B|-------------------------------|-----------------|----------------|--5-4-3--4--o|
G|-------------------------------|-----------------|----------------|---------4---|
D|-------------------------------|-----------------|----------------|---------6---|
A|--7-9-7---6--------------------|------------6----|----------------|---------6--o|
E|--------9---7--7\4--4-4-4-4-2--|--2-2-4-4-4---7--|--7\4--4-4-4-2--|---------4---|
                                                                                  |

e|--0-----11---12--(4)--|------------------------|--------------------
B|--0-----12---12--(4)--|------------------------|--------------------
G|--1---0/13---13--(4)--|------------------------|--------------------
D|--2----------14--(6)--|--6-8-9-8------9-8------|--------------------
A|--2--------------(6)--|----------7-7------7-7--|--6-6------7-6------
E|--0--------------(4)--|------------------------|------4-4------4-4--
                         \_____________________x4____________________/

- za vrijeme ova zadnja dva takta, druga gitara radi slideove na visokim poljima

    tr~~~~~~~~~~~
e|-----------------|-----------------
B|-----------------|----0-2-3-2-0----
G|-----------------|--1-----------3--
D|-----------------|-----------------
A|-----------------|-----------------
E|--1-1/2-2-2-2-2--|-----------------
  \_______x3______/

        tr~~~~~~~~~~~~~~~~~~~~~~~~~~~~~~~~~       tr~~~~~~~~~~~
e|-----------------------------|---------------|-----------------|-----------------
B|-----------------------------|---------------|-----------------|----0-2-3-2-0----
G|-----------------------------|---------------|-----------------|--1-----------3--
D|-----------------------------|---------------|-----------------|-----------------
A|--------------6--------------|--7-7-6-6-4----|-----------------|-----------------
E|--2-2/4-4-4-4---7-4-0-0-0-0--|------------2--|--1-1/2-2-2-2-2--|-----------------
  \____________________x4_____________________/ \_______x3______/

- pjesma zavrsava divljackim trzanjem G#m (466444) akorda


tr~~ - trill
/    - slide up
\    - slide down
( )  - ghost note

Poslao: keko13 | Komentara: 0 | Glasova: 0 | Ocjena: x | Print