negative - daj mi ritam

Poslao: gorjan_bl | Komentara: 2 | Glasova: 1 | Ocjena: 5 | Print
Pesma: Daj mi ritam
Izvodjac: Negative
Transkripcija: Gorjan P.


Napomena: Stim gitare je Drop-D

Uvod i strofe:
   '      '      '      '         '      '      '      '
e-|-----------------------------|------------------------------|
H-|-----------------------------|------------------------------|
G-|-----------------------------|-----------------------------|
D-|-----------------------0-5h0-|-5s7----------------5--------|
A-|-----------------------0-5h0-|--5s7----------------5--------|
D-|-----------------------0-5h0-|--5s7----------------5-7-7b-5-|

    '     '     '       '         '      '      '      '
e-|-----------------------------|-----------------------------|
H-|-------------------3~--------|-----------------------------|
G-|-------------0h2s4~----------|-----------------------------|
D-|-0h2------0h2----------0-5h0-|-5s7----------------5--------|
A-|-0h2-------------------0-5h0-|-5s7----------------5--------|
D-|-0h2-------------------0-5h0-|-5s7----------------5-7-7b-5-|

    '     '     '       '
e-|------------------------------|
H-|-------------------5~---------|
G-|-------------0h2s4~----------|
D-|-0h2------0h2----------0-5h0-|
A-|-0h2-------------------0-5h0--|
D-|-0h2-------------------0-5h0--|

Refren:
     '     '     '     '       '     '     '     '
e-|--------------------------|--------------------------|
H-|-------8-----------5------|------8-----------5-------|
G-|--------9-----------7----|--------9-----------7----| 2x
D-|-------------------------|-------------------------|
A-|--7-----------5-----------|-7-----------0------------|
D-|--------------------------|--------------------------|

     '     '     '     '       '     '     '     '
e-|--------------------------|--------------------12----|
H-|-------8-----------7------|------8----------12-------|
G-|---------9-----------7----|--------9-----------------|
D-|--------------------------|--------------------------|
A-|--7-----------9-----------|-10----------12-----------|
D-|--------------------------|--------------------------|


     '     '     '     '       '     '     '     '
e-|--------------------------|--------------------------|
H-|--------------------------|--------------------------|
G-|--------------------------|--------------------------|
D-|--2-----------7-----------|-5-----------0------------|
A-|--2-----------5-----------|-5-----------0------------|
D-|--2-----------4-----------|-5-----------0------------|


Strofa:

Ja ne zelim jos da se predam
to je moj plan
i da me slomi nikome ne dam
odavno znam da moja volja
jaka je kao stena oseti jer
jedna u milion sam
sebe zelim da ti dam

Refren:

..ti budi vetar,budi talas
sam napred nek lose bude iza nas
budi plima dizi me do oblaka
i ako zelis da me imas
dobro znas sta bi trebalo da sviras
daj mi ritam bicu tvoja muzika

Strofa:

Ja sve mogu ja sve umem
to treba da znas
i kad me pogledas razumem
sta zelis da kazes
moje srce jako je kao stena
oseti jer jedna u milion sam
sebe zelim a ti dam

Hajde sad prelomi
to nista ne boli
duboko udahni,sad sviraj
sve slomi

 Komentari:
Poslao :: constantinepv
Konacno Negative :)
Poslao :: gorjan_bl
Samo sam primjetio da sam napravio gresku pri kucanju zadnje "linije", ide ovako:
e-|--------------------------|--------------------12----|
H-|-------8-----------7------|------8----------12-------|
G-|---------9-----------7----|--------9-----------------|
D-|--------------------------|--------------------------|
A-|--7-----------9-----------|-10----------12-----------|
D-|--------------------------|--------------------------|


Poslao: gorjan_bl | Komentara: 2 | Glasova: 1 | Ocjena: 5 | Print