block out - prokletije (live)

Poslao: KamenZaPete | Komentara: 2 | Glasova: 2 | Ocjena: 5 | Print
Pesma:         Prokletije (live)
Izvodjac:      Block Out
Transkripcija: KamenZaPete
============================================

      Uvod:

                                                               3x
e:-||------------------------------|------------------------------||
h:-||-------------10---------------|------------------------------||
g:-||--6--7--9-----9----10---------|--10--9--7----10----9---------||
D:-||--6--7--9-----7----10---------|--10--9--7----10----9---------||
A:-||--4--5--7-----------8---------|---8--7--5-----8----7---------||
E:-||------------------------------|------------------------------||



e:-||------------------------------|------------------------------||
h:-||-------------10---------------|------------------------------||
g:-||--6--7--9-----9----10---------|--10--9--7----10--------------||
D:-||--6--7--9-----7----10---------|--10--9--7----10----7----7----||
A:-||--4--5--7-----------8---------|---8--7--5-----8----7----6----||
E:-||------------------------------|--------------------5----5----||




B5* A5*


B5*
Nisam, nisam lud sto sirim ruke
A5*
srecan, srecan sto ne lomim vrat
B5*
Ko je razbio i sakrio sve
A5*    A5(2)*
sto je nekad bilo samo moje?


       B5*
e:-||--------------------------|--------------------------||
h:-||--------------------------|--------------------------||
g:-||--3----3-3-3-3---3--3--3--|--------------------------||
D:-||--3----3-3-3-2---2--2--2--|--5--3--2----5---3--2-----||
A:-||--1----1-1-1-1---1--1--1--|----------5------------5--||
E:-||--------------------------|--------------------------||

       A5*
e:-||--------------------------||
h:-||--------------------------||
g:-||--------------------------||
D:-||--7---7-7-7-7---7--7--7---||
A:-||--7---7-7-7-5---5--5--5---||
E:-||--5---5-5-5-5---5--5--5---||

       A5(2)*
e:-||--------------------------||
h:-||--------------------------||
g:-||--------------------------||
D:-||--7---7-7-7-7---7--7--7---||
A:-||--4---4-4-5-7---7--7--7---||
E:-||--5---5-5-5-5---5--5--5---||



Gledaj Prokletije ispred sebe
cekaj, prohodali svi jos nismo
Hvala dobrovoljni davaoce krvi
za srecno detinjstvo...


C5          H5    B5       A5
Bol i ocaj, bol i ocaj osvaja...


Frizer nema saku ima kuku
ne staj, ne staj mu na bes i muku
Bajka, tuzna bajka grobnica je plava
hrabro i badava.


B5
Rekli mi da vampir nema usta
Krvav vrat il himen
A5
Zasto stalno kaljas svoje ime?
B5
Rekli mi da zmurim , jos si tu
Ja tudjom stazom idem
A5
Sklapam svoje oci, overi me



F5                   A5   -|
I svaki put kad nestajem   |
ja setim se da ja sam      |2x
A5   D5   A5    D5         |
Ne---al---ba----nac       -|

* D5  5 5 7 x x x



      "Solo":
       A5
e:-||------------------------|------------------------|----------------------|
h:-||--------------------10--|--------------------10--|------8----10----8----|
g:-||--9----7----9----7------|--9----7----9----7------|----------------------|
D:-||------------------------|------------------------|----------------------|
A:-||------------------------|------------------------|----------------------|
E:-||------------------------|------------------------|----------------------|


---------------------||
---------------------||
--9----7----6--------||
---------------------||
---------------------||
---------------------||



Ljubav, magla iznad povrsine
volis, kako kada nemas cime?
Ponos, cedi kapi lazne slave
                           C5   H5 B5 A5
jastreb ili kokoska bez glave?


Nisam, nisam lud sto sirim ruke
srecan, srecan sto ne lomim vrat
Ko je razbio i sakrio sve
sto je nekad bilo samo moje?


Rekli mi da vampir nema usta
Krvav vrat il himen
Zasto stalno kaljas svoje ime?
Rekli mi da zmurim , jos si tu
Ja tudjom stazom idem
Sklapam svoje oci, overi me


F5                   A5   -|
I svaki put kad nestajem   |
ja setim se da ja sam      |4x
A5   D5   A5    D5         |
Ne---al---ba----nac       -|


Nealbanac
Nealbanac
Nealbanac


Pred kraj: Am Asus4

*Am     5 7 7 x 5 x
*Asus4  5 7 7 7 x x

Kraj: isti kao prvi deo uvoda
 Komentari:
Poslao :: sly_
Odlican rad, hvala!
Poslao :: izgubljen
Mozda onaj "D*" ne bi bilo lose obeleziti sa D5/A.
Poslao: KamenZaPete | Komentara: 2 | Glasova: 2 | Ocjena: 5 | Print