miroslav ilic - ostavi mi prozor otvoren

Poslao: Johnny035 | Komentara: 2 | Glasova: 1 | Ocjena: 1 | Print
Miroslav Ilic  Ostavi mi prozor otvoren

Uvod:
  bm                   C#
E|-------------------|------------------------|
H|-------------------|------------------------|
G|-------------------|----------------10-8----|
D|-8-8-8-8-8-11-10-8-|-11-11-11-11-11------11-|
A|-------------------|------------------------|
E|-------------------|------------------------|

   F#          C#                 d#m d#m bm G# bm
E|-------------------------------|------------------|
H|-------------------------------|------------------|
G|-11-11-11-11-10----------------|-8----8-----------|
D|-------------------11-11-11-11-|--------11-10-8---|
A|-------------------------------|------------------|
E|-------------------------------|------------------|

  bm                   C#
E|-------------------|------------------------|
H|-------------------|------------------------|
G|-------------------|----------------10-8----|
D|-8-8-8-8-8-11-10-8-|-11-11-11-11-11------11-|
A|-------------------|------------------------|
E|-------------------|------------------------|

   F#          C#                 d#m d#m bm G# bm
E|-------------------------------|------------------|
H|-------------------------------|------------------|
G|-11-11-11-11-10----------------|-8----8-----------|
D|-------------------11-11-11-11-|--------11-10-8---|
A|-------------------------------|------------------|
E|-------------------------------|------------------|

  bbm                                    G#
E|-------------|---------------------------------|
H|-------------|---------------------------------|
G|-------------|----10----10----10----10---------|
D|-8--8-8--8-8-|-11----11----11----11-------8-10-|
A|-------------|-------------------------11------|
E|-------------|---------------------------------|

1.
bm            fm       bm
Hej, devojce, pitomo i mazn
bm        G#   bm
Ostade mi srce prazno.
d#m          G#
Srce prazno, a noc puna zvezda,
C#             G#            bm
Ne znam gde cu ko ptica bez gnezda

Ref:
d#m       G#7        C#
Ostavi mi prozor otvoren!
d#m       G#7      C#
Docicu ti bolom umoren!

bm
Primi me ko nekad mila,
C#
Zar si sve zaboravila?
d#m         C#
Hoce gresku da ispravi
G#          bm
Kockar ljubavi!

bm
O, primi me ko nekad mila,
C#
Zar si sve zaboravila?
d#m
Hoce gresku da ispravi
            bm
Kockar ljubavi!

2.
bm            fm         bm
Daj, devojce, opet da te ljubim,
bm        G#      bm
Ne daj mi da nadu gubim!
d#m         G#
Drhte grudi do dna bolom pune
C#          G#         bm
Ko gitari kad jecaju strune!

Ref:
d#m       G#7        C#
Ostavi mi prozor otvoren!
d#m       G#7      C#
Docicu ti bolom umoren!

bm
Primi me ko nekad mila,
C#
Zar si sve zaboravila?
d#m         C#
Hoce gresku da ispravi
G#          bm
Kockar ljubavi!

bm
O, primi me ko nekad mila,
C#
Zar si sve zaboravila?
d#m
Hoce gresku da ispravi
            bm
Kockar ljubavi!

3.
bm           fm          bm
Hej, devojce, mnogo mi je zao.
bm          G#     bm
Sta ce biti nisam znao
d#m      G#
Ovu noc ja trenuti necu
C#          G#          bm
Suza blista ko rosa na cvecu!

Ref:
d#m       G#7        C#
Ostavi mi prozor otvoren!
d#m       G#7      C#
Docicu ti bolom umoren!

bm
Primi me ko nekad mila,
C#
Zar si sve zaboravila?
d#m         C#
Hoce gresku da ispravi
G#          bm
Kockar ljubavi!

bm
O, primi me ko nekad mila,
C#
Zar si sve zaboravila?
d#m                     F
Hoce gresku da ispravi
   F                                    F
E|------------------------------------|-----------------------------|
H|---------------------------9--------|-----------------------------|
G|-10-11-10-8-10--10-8-10-11----11-10-|-10-----10--10-10--10--10-10-|
D|------------------------------------|-----------------------------|
A|------------------------------------|-----------------------------|
E|------------------------------------|-----------------------------|
                     |__3__|
                     Kockar ljubavi!

   F                          bm   bm   FINE
E|-------------------------------|----------|
H|----------------------------11-|-11-------|
G|-10----10--10-10--10--10-10----|----------|
D|-------------------------------|----------|
A|-------------------------------|----------|
E|-------------------------------|----------|

 Komentari:
Poslao :: Johnny035
U strofi bi trebalo da ide F7 umesto fm.
Poslao :: Johnny035
Ne F7, ve fm7, a moe i F5.
Poslao: Johnny035 | Komentara: 2 | Glasova: 1 | Ocjena: 1 | Print