neda ukraden - krijem da te volim

Poslao: Johnny035 | Komentara: 0 | Glasova: 1 | Ocjena: 1 | Print
Neda Ukraden  Krijem da te volim

Uvod: cm (lagano razlaganje, improvizovati po potrebi, pa onda ostatak uvoda)



   cm                        fm
E|-------------------------|-------------------------|
H|-------------------------|-----------11------------|
G|-12-12--12-13-12-10-12---|-13-13--13----13-12-13---|
D|-------------------------|-------------------------|
A|-------------------------|-------------------------|
E|-------------------------|-------------------------|
   G#          B         D# G      G
E|-------------10--------------|----------|
H|-13-13-11-13-----13-11-------|----------|
G|-----------------------13-12-|---12-----|
D|-----------------------------|----------|
A|-----------------------------|----------|
E|-----------------------------|----------|
                            _________*

   cm                        fm
E|-------------------------|-------------------------|
H|-------------------------|-----------11------------|
G|-12-12--12-13-12-10-12---|-13-13--13----13-12-13---|
D|-------------------------|-------------------------|
A|-------------------------|-------------------------|
E|-------------------------|-------------------------|

   G#          B         D# G     G
E|-------------10--------------|----------|
H|-13-13-11-13-----13-11-------|----------|
G|-----------------------13-12-|---12-----|
D|-----------------------------|----------|
A|-----------------------------|----------|
E|-----------------------------|----------|

   fm          D7    G7      cm
E|-------------------------|-------|
H|-------------------------|-------|
G|-10-12-13-12-10----------|-------|
D|----------------13-12-13-|-10----|
A|-------------------------|-------|
E|-------------------------|-------|

cm
Dovedite nocas Cigane
G               G7         cm
Nek' sviraju kraj naseg stola
cm
Onu pjesmu staru ljubavnu
G             G7       cm
Jer ja te volim sve do bola


Prelaz:

   cm
E|-------------------------|
H|-------------------------|
G|-12-12--12-13-12-10-12---|
D|-------------------------|
A|-------------------------|
E|-------------------------|

   fm        D7    G7      cm**
E|-----------------------|-------|
H|-----------------------|-------|
G|-13--13-12-10----------|-------|
D|--------------13-12-13-|-10----|
A|-----------------------|-------|
E|-----------------------|-------|

cm
I nikada neces saznati
G               G7         cm
Koliko sam duso tebe voljela
cm
Zar moram nocas umrijeti
G           G7         cm
Da bih tebe ja preboljela

G#             B
A znam da znas, i znao si
                 D#    G   G7
Od srca te moram, sakriti, hej...

Ref:
cm                  G#
Krijem da te volim, krijem da me boli
G#         B    D# G
Da me boli srce za tobom
cm                  G#
Krijem da te volim, krijem da me boli
G#          B    D# G
Da si mojoj dusi nespokoj
fm           D7    G7    cm
Jer ti nikad neces biti moj


A refren moze da se svira i sa solo pratnjom:

   cm                        fm
E|-------------------------|-------------------------|
H|-------------------------|-----------11------------|
G|-12-12--12-13-12-10-12---|-13-13--13----13-12-13---|
D|-------------------------|-------------------------|
A|-------------------------|-------------------------|
E|-------------------------|-------------------------|
   Krijem da  te  volim      Krijem da  me   boli

   G#          B         D# G      G
E|-------------10--------------|----------|
H|-13-13-11-13-----13-11-------|----------|
G|-----------------------13-12-|---12-----|
D|-----------------------------|----------|
A|-----------------------------|----------|
E|-----------------------------|----------|
                            _________*
   Da me boli  srce   za    tobom

   cm                        fm
E|-------------------------|-------------------------|
H|-------------------------|-----------11------------|
G|-12-12--12-13-12-10-12---|-13-13--13----13-12-13---|
D|-------------------------|-------------------------|
A|-------------------------|-------------------------|
E|-------------------------|-------------------------|
   Krijem da  te  volim      Krijem da  me   boli

   G#          B         D# G      G
E|-------------10--------------|----------|
H|-13-13-11-13-----13-11-------|----------|
G|-----------------------13-12-|---12-----|
D|-----------------------------|----------|
A|-----------------------------|----------|
E|-----------------------------|----------|
   Da si mojoj  dusi     nespokoj

   fm          D7    G7      cm
E|-------------------------|-------|
H|-------------------------|-------|
G|-10-12-13-12-10----------|-------|
D|----------------13-12-13-|-10----|
A|-------------------------|-------|
E|-------------------------|-------|
   Jer ti nikad neces biti moj


* - Ovo znaci da se nota produzava proizvoljno
    toliko da prelazi u drugi takt.

** - Ovaj takt se poklapa sa pocetkom strofe.


Poslao: Johnny035 | Komentara: 0 | Glasova: 1 | Ocjena: 1 | Print