dragan kojic keba - srce kuca tvoje ime

Poslao: Johnny035 | Komentara: 0 | Glasova: 2 | Ocjena: 3 | Print
SRCE KUCA TVOJE IME
Dragan Kojic-KEBA

Uvod: gm

gm
Kad je ljubav tajna
G7           cm
I tuga se krije.
               gm
To ne moze znati,
F        gm
Ko voleo nije.

Ref:
gm        cm
Srce kuca tvoje ime.
F             B
Niko ga ne sme znati.
cm        D D#
S ljubavlju tebi od mene,
cm    (D   cm)    D
Neka te sreca prati.

  gm               cm         F              B
E|---------------|---------|---------------|--------|
H|-------8-6-----|---------|-------6-------|--------|
G|-----7-----8-7-|-5--7-8--|-----5---8-8-7-|-7------|
D|-5-8-----------|---------|---7-----------|--------|
A|---------------|---------|-8-------------|--------|
E|---------------|---------|---------------|--------|

  cm          cm          gm          gm
E|-----------|-----------|-----------|-----------|
H|---8-------|-8---------|-----------|-----------|
G|------10-8-|---10--8-7-|---10--8-7-|-10-8-7----|
D|-8---------|-----------|-8---------|--------10-|
A|-----------|-----------|-----------|-----------|
E|-----------|-----------|-----------|-----------|

  F            D7   gm
E|----|------|---------|----|
H|----|------|---------|----|
G|----|------|---------|----|
D|-7--|-8--7-|------5--|----|
A|----|------|-8-5-----|----|
E|----|------|---------|----|

   cm        cm         gm          gm
E|----------|----------|----------|----------|
H|----------|----------|----------|----------|
G|---8--7-5-|-8-7--5---|---7--5---|-7-5------|
D|-5--------|--------8-|-5------8-|------8-7-|
A|----------|----------|----------|----------|
E|----------|----------|----------|----------|

  F            D7   gm   gm
E|-5--|-6--5-|---------|-----|
H|----|------|-6----8--|-1s8-|
G|----|------|---7-----|-----|
D|----|------|---------|-----|
A|----|------|---------|-----|
E|----|------|---------|-----|

gm
Ne plasim se dana
G7          cm
Kad me nece biti.
             gm
Plasim se za tebe,
F          gm
To ne mogu kriti.

Ref:
gm        cm
Srce kuca tvoje ime.
F             B
Niko ga ne sme znati.
cm        D D#
S ljubavlju tebi od mene,
cm    (D   cm)    D
Neka te sreca prati.

  gm               cm         F              B
E|---------------|---------|---------------|--------|
H|-------8-6-----|---------|-------6-------|--------|
G|-----7-----8-7-|-5--7-8--|-----5---8-8-7-|-7------|
D|-5-8-----------|---------|---7-----------|--------|
A|---------------|---------|-8-------------|--------|
E|---------------|---------|---------------|--------|
  cm          cm          gm          gm
E|-----------|-----------|-----------|-----------|
H|---8-------|-8---------|-----------|-----------|
G|------10-8-|---10--8-7-|---10--8-7-|-10-8-7----|
D|-8---------|-----------|-8---------|--------10-|
A|-----------|-----------|-----------|-----------|
E|-----------|-----------|-----------|-----------|
  F            D7   gm
E|----|------|---------|----|
H|----|------|---------|----|
G|----|------|---------|----|
D|-7--|-8--7-|------5--|----|
A|----|------|-8-5-----|----|
E|----|------|---------|----|

  cm          cm         gm         gm
E|----------|----------|----------|----------|
H|----------|----------|----------|----------|
G|---8--7-5-|-8-7--5---|---7--5---|-7-5------|
D|-5--------|--------8-|-5------8-|------8-7-|
A|----------|----------|----------|----------|
E|----------|----------|----------|----------|

  F            D7   gm   gm
E|-5--|-6--5-|---------|-8-8s3-|
H|----|------|-6----8--|-------|
G|----|------|---7-----|-------|
D|----|------|---------|-------|
A|----|------|---------|-------|
E|----|------|---------|-------|

Ref:
gm        cm
Srce kuca tvoje ime.
F             B
Niko ga ne sme znati.
cm        D D#
S ljubavlju tebi od mene,
cm    (D   cm)    D
Neka te sreca prati.

                          (solo udaraljke  fade out)
   F           D7 gm     FINE
E|----|------|---------|----|
H|----|------|---------|----|
G|----|------|---------|----|
D|-7--|-8--7-|---------|----|
A|----|------|-8-5-----|----|
E|----|------|---------|----|

Poslao: Johnny035 | Komentara: 0 | Glasova: 2 | Ocjena: 3 | Print