serif konjevic - zauvijek si ostala u meni (hm)

Poslao: Johnny035 | Komentara: 0 | Glasova: 2 | Ocjena: 3 | Print
Serif Konjevic  Zauvijek si ostala u meni

Johnny035 feat. brco1000

Uvod:
E|-------------9----------------|--------------------------------|
H|------12-12-----12--10--12----|--10-12-10-12--10---------------|
G|--11--------------------------|-------------------12--9--10----|
D|------------------------------|--------------------------------|
A|------------------------------|--------------------------------|
E|------------------------------|--------------------------------|

E|------------------------------------------------------|
H|--10--------------------------------------------------|
G|------12--11-12-11-12--11--9--11--9----9----9---------|
D|------------------------------------12---12---12--11--|
A|------------------------------------------------------|
E|------------------------------------------------------|

E|-------------------------------------------------|
H|-------------------------------------------------|
G|-9---------------------------------------9-11-12-|
D|----12--11-12-11-12--11--7--9----9-11-12---------|
A|-------------------------------------------------|
E|-------------------------------------------------|

E|-------------------------------------------------------|
H|--10---------------------------------------------------|
G|------12--11-12-11-12--11--9--11--9----9----9----------|
D|------------------------------------12---12----12--11--|
A|-------------------------------------------------------|
E|-------------------------------------------------------|

E|---------------------------------|
H|---------------------------------|
G|-9-------------------------------|
D|----12--11-12-11-12--11--7--9----|
A|---------------------------------|
E|---------------------------------|

hm              em
Ponoc je odavno prosla,
hm        A     hm (solo prelaz u strofi)
Kraj mene nikoga nema,
hm                em
Dok misli nemirno lete,
hm      A    hm   (solo prelaz u strofi)
U dusi tuga golema..

prelaz na referen: hm A (ili solo prelaz na refren)

ref:
  D             em
I placem,placem kao dijete,
 D        A      hm       A (tj. prelaz: hm A ili solo prelaz na refren)
Pitam kroz suze gdje si,
  D             em
I nikad prestati necu,
hm            A     hm
Zauvijek si ostala u meni..

Kraj: hm A hm


Solo prelaz u strofi:

E|------------------|------------------------|
H|--12--10----------|------------------------|
G|----------12--11--|--11--9-----------------|
D|------------------|---------12--11--9-7-9--|
A|------------------|------------------------|
E|------------------|------------------------|

Solo prelaz na refren:

E|----------------------------------|
H|----------------------------------|
G|----------------------------------|
D|----------------------------------|
A|----------------------------------|
E|--7-9-7-9-7-9--10-12-10-12-10-12--|

E|----------------------------------------------|
H|----------------------------------------------|
G|----------------------------------------------|
D|---------------------9----9----9-----9-11-12--|
A|--9-10-9-10-9-10--12---12---12----12----------|
E|----------------------------------------------|


Rad radjen na osnovu rada koji je poslao brco1000.
Poslao: Johnny035 | Komentara: 0 | Glasova: 2 | Ocjena: 3 | Print