psihomodo pop - nema nje

Poslao: alien 8 | Komentara: 0 | Glasova: 2 | Ocjena: 4.5 | Print
       >> Psihomodo Pop - nema nje<<

  transakcija; alien 8

  uvod: riff

 e|----------------|    |-------------------------------------|
 h|----------------|    |-------------------------------------|
 g|--5~-5-x-x-x----|    |-5----------2~-2-x-x-x--2~-2---------|
 d|--7~-7-x-x-x----|x 3 |-7----------3~-3-x-x-x--3~-3---------|
 a|--7~-7-x-x-x----|    |-7----------3~-3-x-x-x--3~-3---------|
 e|--5~-5-x-x-x----|    |-5---5-4-3--1~-1-x-x-x--1~-1---1--3--|

  intro Riff
 e|------------------------------------------------------|
 h|------------------------------------------------------|
 g|-5~-5-x-x-x-5~-5---------2~-2-x-x-x-2~-2--------------|
 d|-7~-7-x-x-x-7~-7---------3~-3-x-x-x-3~-3--------------|x 2
 a|-7~-7-x-x-x-7~-7---------3~-3-x-x-x-3~-3--------------|
 e|-5~-5-x-x-x-5~-5--5\4\3--1~-1-x-x-x-1~-1---1---3------|



 Strofa


  Stan ima cet'ri sobe ,

 e|----5-------------------|
 h|------5-----------------|
 g|--------5---------------|
 d|-----------7~-----------|<=overdrive
 a|------------------------|
 e|------------------------|

  Sve, sve su sive;

 e|----1-------------------|
 h|------1-----------------|
 g|--------2---------------|
 d|----------3~------------|<=overdrive
 a|------------------------|
 e|------------------------|

  U mojoj glavi, nastaju slike

 e|--5---------------------|
 h|----5-------------------|
 g|-------5----------------|
 d|----------7~------------|<=overdrive
 a|------------------------|
 e|------------------------|

  Cudne ljigave, gljive

 e|-----1------------------|
 h|--------1---------------|
 g|-----------2------------|
 d|--------------3~--------|<=overdrive
 a|------------------------|
 e|------------------------|

  intro Riff
 e|------------------------------------------------------|
 h|------------------------------------------------------|
 g|-5~-5-x-x-x-5~-5---------2~-2-x-x-x-2~-2--------------|
 d|-7~-7-x-x-x-7~-7---------3~-3-x-x-x-3~-3--------------|
 a|-7~-7-x-x-x-7~-7---------3~-3-x-x-x-3~-3--------------|
 e|-5~-5-x-x-x-5~-5--5-4\3--1~-1-x-x-x-1~-1---1---3------|


  Strofa

  Am
  Praznina u zelucu,

  F
  Mjesaju se kiseline;

  Am
  Gledam kroz mutno staklo,

  F
  Vani je inje


 Refren;

         Nema nje, ooo-o-o
 e|--------------------------|
 h|--------------------------|
 g|-4/5-55555----------5-----|
 d|-4/5-55555--5---555-5-5---|x3
 a|-2/3-33333--5---555-3-5---|
 e|------------3---333---3---|

      zaspala  je,zauvjek
 e|--------------------------|
 h|--------------------------|
 g|--------------------------|
 d|-3-333333----5--5555------|
 a|-3-333333----5--5555------|
 e|-1-111111----3--3333------|


  intro riff
 e|------------------------------------------------------|
 h|------------------------------------------------------|
 g|-5~-5-x-x-x-5~-5---------2~-2-x-x-x-2~-2--------------|
 d|-7~-7-x-x-x-7~-7---------3~-3-x-x-x-3~-3--------------|x2
 a|-7~-7-x-x-x-7~-7---------3~-3-x-x-x-3~-3--------------|
 e|-5~-5-x-x-x-5~-5--5-4\3--1~-1-x-x-x-1~-1---1---3------|


  Strofa
   Am
   Ja sam crna haljina,

   F
   iz crne duge dolazim;

   Am
   Molim se za miran kut,

   F
   moram da te uhvatim ;


   Am
   Ti znas da sam pakao,
 e|------------------------------------|
 h|------------------------------------|
 g|--------------------------------5---|
 d|-5h7----7v---7v---7v----7v---7------|
 a|------------------------------------|
 e|------------------------------------|

  F
  Zaljepio na zidove,
 e|------------------------------------|
 h|------------------------------------|
 g|------------------------------------|
 d|-5h7----7v---7v---7v----7v---7--5---|
 a|------------------------------------|
 e|------------------------------------|

  Am
  Na hladne male crvene
 e|------------------------------------|
 h|------------------------------------|
 g|--------------------------------5---|
 d|-5h7----7v---7v---7v----7v---7------|
 a|------------------------------------|
 e|------------------------------------|

  F
  Tapetne ??????????  zidove????
 e|-------------------------------------|
 h|-------------------------------------|
 g|-----------------------------5p4-----|
 d|-5h7----7v---7v---7v----7v-------7-5-|
 a|-------------------------------------|
 e|-------------------------------------|


   Refren;

         Nema nje, ooo-o-o
 e|--------------------------|
 h|--------------------------|
 g|-4/5-55555----------5-----|
 d|-4/5-55555--5---555-5-5---|x3
 a|-2/3-33333--5---555-3-5---|   \
 e|------------3---333---3---|    \
                                   \
      zaspala  je,zauvjek           |X 2
 e|--------------------------|     /
 h|--------------------------|    /
 g|--------------------------|   /
 d|-3-333333----5--5555------|
 a|-3-333333----5--5555------|
 e|-1-111111----3--3333------|

  Prelaz;
    Am                       F
 e|--------------------------------------------|
 h|--------------------------------------------|
 g|--------------------------------------------|
 d|--------------------------------------------|x2
 a|--------------------------------------------|
 e|--5v--------5--7--8-------1v----------------|



 e|------------------------------------|
 h|------------------------------------|
 g|--------------------------------5---|
 d|-5h7----7v---7v---7v----7v---7------|
 a|------------------------------------|
 e|------------------------------------|


 e|------------------------------------|
 h|------------------------------------|
 g|------------------------------------|
 d|-5h7----7v---7v---7v----7v---7--5---|
 a|------------------------------------|
 e|------------------------------------|


 e|------------------------------------|
 h|------------------------------------|
 g|--------------------------------5---|
 d|-5h7----7v---7v---7v----7v---7------|
 a|------------------------------------|
 e|------------------------------------|


 e|-------------------------------------|
 h|-------------------------------------|
 g|-----------------------------5p4-----|
 d|-5h7----7v---7v---7v----7v-------7-5-|
 a|-------------------------------------|
 e|-------------------------------------|


   Refren;

         Nema nje, ooo-o-o
 e|--------------------------|
 h|--------------------------|
 g|-4/5-55555----------5-----|
 d|-4/5-55555--5---555-5-5---|x3
 a|-2/3-33333--5---555-3-5---|   \
 e|------------3---333---3---|    \
                                   \
      zaspala  je,zauvjek           |X 2
 e|--------------------------|     /
 h|--------------------------|    /
 g|--------------------------|   /
 d|-3-333333----5--5555------|
 a|-3-333333----5--5555------|
 e|-1-111111----3--3333------|


  THE END !


tab/: -v=vibrato
      -~=neka odzvanja (akcentovan riff)
      -/=slide
      -h=hammer on
      -p=pull off
      -x= mrtva nota





Poslao: alien 8 | Komentara: 0 | Glasova: 2 | Ocjena: 4.5 | Print