prljavo kazaliste - 17 ti je godina tek (solo)

Poslao: keko13 | Komentara: 0 | Glasova: 1 | Ocjena: 5 | Print
   #                                                  #
   #  Prljavo kazaliste - 17 ti je godina tek (solo)  #
   #                                                  #
   #  by: keko13 @ 2akordi.net                        #
   #                                                  #
   ####################################################


     (1:36)

e ----------------------------------------------------------------------
B ----------------------------------------------------------------------
G ---------10----10-12b14-12b14r12p10----12---12b14-12-10---------------
D ---10h12----12---------------------h12------------------12-10h12-10---
A ----------------------------------------------------------------------
E ----------------------------------------------------------------------


     (1:40)                                                    (1:45)

e ----------------------------------------------------------------------
B -----------------------------------------------------------13b15-13---
G ---------10----10-12b14-12b14r12p10----12---12b14-12-10---------------
D ---10h12----12---------------------h12------------------12------------
A ----------------------------------------------------------------------
E ----------------------------------------------------------------------

(x2)


h - hammer on
b - bend
r - release bend



Sto se tice ritmickog dijela pjesme, u strofama se izmjenjuju akordi
C  G  C

refren (ne brini pred tobom stoji zivot...)
F  C  G  C

prijelaz (jer ti ne znas sto je ljubav jos...)
G  C  G  C

U biti isti akordi kao i u verziji u arhivi samo sto je tonalitet za ton nizi.
Poslao: keko13 | Komentara: 0 | Glasova: 1 | Ocjena: 5 | Print