zoster - a gdje sam bio ja

Poslao: Nicksche | Komentara: 0 | Glasova: 0 | Ocjena: x | Print
  |-------------------------------------|
  |------------------------6-6-10-------|_x7
  |-------------8----8-8-8--------------|
  |--6-6-6-6--9-------------------------|
                                            - bas(fill 1)
  |-------------------------------------|
  |-------------------6-6---------------|
  |-------------8---------6-6-----------|
  |--6-6-6-6--9---------------9-9-8-8---|


   solo
   A#m         D#                  C#                 H
  |--------------------------------------------------------------
  |-6--6-9-6-6-----6-------------6-------------------------------
  |------------8-6---8--8--8-6-8---6-5-8-6--6--6-5-6-8-4-3-6-4---
  |--------------------------------------------------------------
  |--------------------------------------------------------------
  |--------------------------------------------------------------
               A#m
  ----------------------|
  ----------------------|
  -4--4-3-4-6--7-6-4-3--|
  ----------------------|
  ----------------------|
  ----------------------|

  |-----|
  |-----|
  |-4-3-|_fill 2
  |-----|
  |-----|
  |-----|


  |-------------|
  |-------------|
  |-------------|_fill 3/
  |-------------|
  |-------------|
  |-9-9-7-7-6---|

  |--------|
  |--------|
  |--------|_fill 4
  |--------|
  |--------|
  |-4-4--6-|

  |-9-9-11-9-8/9/8-----------|
  |----------------11--------|
  |--------------------------|_sax(fill 5)
  |--------------------------|
  |--------------------------|
  |--------------------------|

  |--------------------------|
  |-14-14-16-14-13/14/13-----|
  |----------------------15--|_sax(fill 6)
  |--------------------------|
  |--------------------------|
  |--------------------------|

  |--------------------------|
  |--------------------------|
  |-------11-10-9/10/9-------|_sax(fill 7)
  |-12-14----------------8---|
  |--------------------------|
  |--------------------------|

  |-------14-13-11/13/11-----|
  |-15-17----------------14--|
  |--------------------------|_sax(fill 8)
  |--------------------------|
  |--------------------------|
  |--------------------------|

  fill 9
  |-------------------------------------------------------------------
  |-------------------------------------------------------------------
  |-------------------------------------------------------------------
  |-------------------------------------------------------------------
  |-------------------------------------------------------------------
  |-6---9-9-13-13-12-12-11---11-11-13-13-11-11-9---9-9-11-11-9-9-7--6-

  ---------------------------------------------------------------------|
  ---------------------------------------------------------------------|
  ---------------------------------------------------------------------|
  ---------------------------------------------------------------------|
  ---------------------------------------------------------------------|
  -4-6---9-9-13-13-12-12-11---11-11-13-13-11-11-9---9-9-11-11-9-9-7--6-|


  fill 1
  Vidio sam sve i svasta, cuo sam |_x4
  vidio sam, cuo sam              |


  solo x 2


fill 2
 A#m                       fill 3
  Ja nikad nisam bio nigdje
                           fill 5 fill 4
  a ti si brate bio svugdje
                          fill 3
  imao si priliku da vidis
                          fill 6 fill 4
  imao si priliku da cujes

                           fill 3
  Ja nikad nisam bio nigdje
                           fill 7 fill 4
  a ti si brate bio svugdje
                          fill 3
  imao si priliku da vidis
                          fill 8
  imao si priliku da cujes


  solo x 1


fill 2
 A#m                       fill 3
  Ja nikad nisam bio nigdje
                           fill 6 fill 4
  a ti si brate bio svugdje
                        fill 3         fill 5 fill 4
  e pa sad zamisli kolika je moja masta

                           fill 3
  Ja nikad nisam bio nigdje
                           fill 7 fill 4
  a ti si brate bio svugdje
                          fill 3
  imao si priliku da vidis
                          fill 8
  imao si priliku da cujes


  ref: x2
  fill 9
 A#m
  A gdje sam bio ja
 D#
  kad si bio ti
 C#
  a gdje sam bio ja
             H
  kad si bio ti
               A#m
  gdje sam bio ja


  solo x 2


  fill 2
 A#m                                        fill 6
  Cijeli svijet pod nogama tvojim sada stoji
                                           fill 6
  Cijeli svijet pod nogama tvojim sada stoji
                                           fill 7
  Cijeli svijet pod nogama tvojim sada stoji
                                    fill 8
  A cijeli svijet pod nogama tvojim


  ref: x4



  Napomena: Fill 5, fill 6, fill 7 i fill 8 su saksofon,
            i u strofama se ispreplicu sa gitarskim fill-ovima 3 i 4,
            tako da prva cetiri navedena ne svira gitara, valjda cete shvatiti,
            nadam se da nece biti pogresaka...uzivajte...
















Poslao: Nicksche | Komentara: 0 | Glasova: 0 | Ocjena: x | Print