ekv - karavan

Poslao: marian | Komentara: 2 | Glasova: 5 | Ocjena: 5 | Print
Transkripcija: Marian
Album        : Dum Dum (1991)




A Em

A         Em
Ti budan spavas,
A                  Em
listas snove kao stranice knjige,
A         Em   A
tvoja je glava teska kao nakovanj
  Em
i puna briga.
Riff:
E-------------------------------|
H-------------------------------|
G-------------------------------|
D--7---7-7-8-7-5----------------|
A--0---0-0-0-0-0-7--7--7--7-8-7-|
E----------------0--0--0--0-0-0-|

A       Em       A              Em
Necu te moliti : Ustaj budi se, ustaj budi se !
A       Em
necu te cekati,
     A                    Em
necu tvoje teske ruke oko moga vrata.

Refr:
Em            D/F#        C            B7
     Nocas je mesec ,opet crven,mlad i ljut
Em               D/F#   C           B7
       Mi smo na putu....mi pravimo put
Em           D/F#       C        B7
      Nemamo vremena.....nemamo razloga,
Em           D/F#       C        B7
  Da stanemo ovde, i da sacekamo dan.


A Em.

Riff:
E-------------------------------|
H-------------------------------|
G-------------------------------|
D--7---7-7-8-7-5----------------|
A--0---0-0-0-0-0-7--7--7--7-8-7-|
E----------------0--0--0--0-0-0-|

Psece oci u tamni,
Ove sare ove sape su ruke
Prekidaj lanac,
Zaurlaj na oblak koji sakriva mesec
Necu te buditi,
Oslobodi se oslobodi se!
Necu te cekati,
Necu tvoje teske sape oko moga vrata..


Refr:

 Komentari:
Poslao :: marian
znam da veŠ postoji tab u arhivi, al je refren totalno kriv pa sam ga ispravila :)
Poslao :: Johnny
Tako je, Meri!
Poslao: marian | Komentara: 2 | Glasova: 5 | Ocjena: 5 | Print