atomsko skloniste - treba imat dusu

Poslao: NEred_source | Komentara: 4 | Glasova: 2 | Ocjena: 5 | Print
Atomsko skloniste  Treba imat dusu

>>prvi riff<<
Uz stol na tri noge
Bez ijednog cavla
Sjele su u pet do ponoc
>>drugi riff + prvi riff<<
Da prizivaju duhove

U polutamnoj sobi
Sklopile su svoje oci
Ispruzile bijele prste
I saputale njegovo ime

U tren se pretvorilo
Hiljadu noci i dana
Odgovora nije bilo
Jer za ljubav treba imat' dusu

   Prvi rif                 Drugi riff
E||------------------------|------------------------|--2---2---2----3--3-2---||
B||--2---2---2----3--3-0---|--3---3---3----3--3-3---|--3---3---3----3--3-3---||
G||--2---2---2----2--2-2---|--4---4---4----5--5-4---|--2---2---2----2--2-2---||
D||--2---2---2----2--2-2---|--5---5---5----5--5-5---|------------------------||
A||------------------------|------------------------|------------------------||
E||------------------------|------------------------|------------------------||

 Komentari:
Poslao :: NEred_source
Poceo sam da pravim za sebe neku pesmaricu i da kupim tekstove odavde, pa cu usput za pesme koje budu imale po JEDNU NETACNU transkripciju izbacivat ispravke... naravno koliko mi to bude vreme dozvoljavalo... pozz
Poslao :: alien 8
Ej dobro je, a mogo si i solo iskucat ,bas je lak, A ,i bas naprotiv sta da ga kucas neka ga skine ko nezna ..
Poslao :: NEred_source
Uf pa na solo sam skroz zaboravio, a i nije neki...
Poslao :: NEred_source

--12-12-12-12-12-12-12-12-12-12-12-12-12-12-12-12-|
--13-13-13-13-13-13-13-13-13-13-13-13-13-13-13-13-|
--------------------------------------------------|
--------------------------------------------------|
--------------------------------------------------|
--------------------------------------------------|


                                                                            
--10-10-10-10-10-10-10-10-10-10-10-10-10-10-10-10-|--15---14---------------|
--12-12-12-12-12-12-12-12-12-12-12-12-12-12-12-12-|--12---10---15----------|
--------------------------------------------------|--12---11---11----------|
--------------------------------------------------|------------12----------|
--------------------------------------------------|------------------------|
--------------------------------------------------|------------------------|

Poslao: NEred_source | Komentara: 4 | Glasova: 2 | Ocjena: 5 | Print