block out - fotelja (live)

Poslao: KamenZaPete | Komentara: 5 | Glasova: 5 | Ocjena: 5 | Print
Izvodjac: Block Out
Pesma Fotelja
Info: Uzivo sa Exit festivala 2008
Transkripcija: KamenZaPete
===================================


       Bas Riff (za gitaru):
e:-||-------------------------------
h:-||-------------------------------
g:-||-------------------------------
D:-||---------------------5---------
A:-||----------------3h5----3-1-1---
E:-||--3-3-3--3-3-3---------------3-

      Riff A
e:-||------------------
h:-||------------------
g:-||------------------
D:-||------------------
A:-||-------5~~~-------
E:-||--6~~~------5~~~--


      Riff B
e:-||-------------------------------------------------
h:-||-------------------------------------------------
g:-||-------------------------------------------------
D:-||--/8--8-8--8-8-8-8--8-8--85--5-5--5-5-5-5--8-8--
A:-||-------------------------------------------------
E:-||-------------------------------------------------

      Riff C
e:-||-------------------
h:-||-------------------
g:-||--xx-7-----xx-6----
D:-||--xx-8~~~--xx-7~~~-
A:-||--xx-8~~~--xx-7~~~-
E:-||-------------------


Uvod:

Bas Riff
Riff A
Riff B
Riff C
Riff B


Strofa 1:

Gm
Malo srece, puno suza
tek ko zar u mraku sinem
Cm
moja sreca nije raskopcana bluza
      Gm
da je slozim na fotelju kad je skinem


Strofa 2:
Srce kamen tajnu cuva
kamen prah dok postane
vode mutne, vetar razuzdano duva
zalijes ga ono suvo ostane


Post-Strofa:

Riff A
Riff B
Riff C
Riff B


Strofa 3:
Prazne reci puno snova
a od snova teske zore
urbanizam mladih sokolova
mrtve bude traze nove dobrotvore


Strofa 4:
Neki dani nekad lice
a poneki malo vise
nova krv a stoput ispricane price
svoju proslost bi da isperu pre kise


      Tema:

e:-||------------------------|-------------------------
h:-||------------------------|-------------------------
g:-||------------------------|-------------------------
D:-||--/12--10--8--10--10/12-|--/12--10--8--8/10--8----
A:-||------------------------|-------------------------
E:-||--/10---8--6---8---8/10-|--/10---8--6--6/8---6----


e:-||------------------------|-------------------------
h:-||------------------------|-------------------------
g:-||------------------------|-------------------------
D:-||-/10--10/15--13--12--10-|--/12--10--8--10--10/12--
A:-||------------------------|-------------------------
E:-||--/8---8/13--11--10---8-|--/10---8--6---8---8/10--


e:-||------------------------|-------------------------
h:-||------------------------|-------------------------
g:-||------------------------|-------------------------
D:-||--/12--10--8--8/10--8---|--10--10/15--13--12--10--
A:-||------------------------|-------------------------
E:-||--/10---8--6--6/8---6---|---8---8/13--11--10---8--


e:-||-------------------------
h:-||-------------------------
g:-||-------------------------
D:-||--/12--10--8--7--5~~~----
A:-||-------------------------
E:-||--/10---8--6--5--3~~~----


Kraj:

Tema
Oooo o ooo o oooo

D5


korisceni akordi:
==================
Cm x 3 5 5 4 3
D5 x 5 7 7 x x
Gm 3 5 5 3 3 3
==================
 Komentari:
Poslao :: KamenZaPete
Dobre, nove stvari...
Poslao :: skabo
I odlična ocena
Poslao :: Johnny
e:-||-------------------------------
h:-||-------------------------------
g:-||-------------------------------
D:-||---------------------5---------
A:-||----------------1h3----3-1-----
E:-||--3-3-3--3-3-3-------------6--

e:-||-------------------
h:-||-------------------
g:-||-------------------
D:-||--xx-8~~~--xx-7~~~-
A:-||--xx-8~~~--xx-7~~~-
E:-||-------------------


Ovo nije bilo dobro, prepravio sam
Poslao :: KamenZaPete
Kao sto rekoh - uvek :)
Poslao :: Genesis
BO mi je, trenutno, omiljeni bend... hvala, care :D
Poslao: KamenZaPete | Komentara: 5 | Glasova: 5 | Ocjena: 5 | Print