crvena jabuka - ples nevjernih godina (solo violina)

Poslao: Kristijan | Komentara: 0 | Glasova: 1 | Ocjena: 1 | Print
Crvena jabuka - Ples nevjernih godina  (Solo - Violina)


  (0:15)

E||---5-2-0---5-2-0---5-2-0---5-2-0----|---4-2-0---4-2-0---4-2-0---4-2-0----|
B||------------------------------------|------------------------------------|
G||------------------------------------|------------------------------------|
D||------------------------------------|------------------------------------|
A||------------------------------------|------------------------------------|
E||------------------------------------|------------------------------------|


E||---5-4-2---5-4-2---5-4-2---5-4-2----|---4-2-0---4-2-0--4-2-0---4-2-0-----|
B||------------------------------------|------------------------------------|
G||------------------------------------|------------------------------------|
D||------------------------------------|------------------------------------|
A||------------------------------------|------------------------------------|
E||------------------------------------|------------------------------------|


E||------------------------------------|
B||---7-5-3---7-5-3---7-5-3---7-5-3----|
G||------------------------------------|
D||------------------------------------|
A||------------------------------------|
E||------------------------------------|

   (0:25)
E||------------------------------------------7-------------------------------0-|
B||-5-7-5-5-7-5-5-7-5-----------------7-9-10---10-9-7--5-7-5-5-7-5-5-7-5-2-3---|
G||-------------------7-6-------6-7-9------------------------------------------|
D||-----------------------9-7-9------------------------------------------------|
A||----------------------------------------------------------------------------|
E||----------------------------------------------------------------------------|

  Dva put se igra gornji solo, a zakljuci se tako nekako!

   (0:45)
E||---------------------------|
B||-5-7-5-5-7-5-5-7-5---------|
G||-------------------7-6-----|
D||-----------------------7---|
A||---------------------------|
E||---------------------------|


www.kristijankiking@gmail.com
Poslao: Kristijan | Komentara: 0 | Glasova: 1 | Ocjena: 1 | Print