filmska muzika - vratice se rode

Poslao: vuk | Komentara: 8 | Glasova: 3 | Ocjena: 3.33 | Print
Transkripcija: Vuk(i dalje nemam mail)
Poslao:Vuk

Intro:
E|-2/3-5-6-5-5-6-5-3--------------------
H|-------------------------3--------1---
G|-----------------------4--------2-----
D|---------------------5--------3-------  x2
A|-------------------5--------3---------
E|--------------------------------------



E|-2/3-5-6-5-5-6-5-3-6-5-5-6-5-3-3-2---|
H|-------------------------------------|
G|-------------------------------------|
D|-------------------------------------|
A|-------------------------------------|
E|-------------------------------------|
 Komentari:
Poslao :: vuk
Ovo je jedna od tema iz serije..
Poslao :: Gost_Bane
ne bi reko da je to to... ako je to ona kratka tema na koju ja mislim...
Poslao :: Jera
Obradovao si me sa ovim.Samo mi jos kazi koja je to temica jer ja ne prepoznajem.Odnosno ne mogu zato ni da je odsviram.Bilo bi cool kad bi uradio gp verziju!
Poslao :: vuk
potrudicu se da uradim gp.. to je ona kratka tema koja se javlja kad se nesto brzo desava.. gp cu uraditi cim budem mogao..
Poslao :: cipi
odlicno brate
Poslao :: Gost_Maske
Kako se otvaraju fajlovi gp formata? Odg. Please
Poslao :: Gost_Anche
prvi deo je super ali drugi ne umem da odsviram
Poslao :: Gost
vrh, josh samo kad bi neko uradio onu temu u gp formatu :)
Poslao: vuk | Komentara: 8 | Glasova: 3 | Ocjena: 3.33 | Print