ritam nereda - san (uvod)

Poslao: Crni_Leptir | Komentara: 3 | Glasova: 0 | Ocjena: x | Print
Transkripcija: Crni leptir - dragan.nikolcevic@gmail.com

e--12-10----------------------------------------------
H--------13-12-10----10-12-13-12-10----10-12-10-------
G-----------------12----------------12----------------
D-----------------------------------------------------
A-----------------------------------------------------
E-----------------------------------------------------

e--12-10----------------------------------------------
H--------13-12-13-12-10----12-13-12-10----10----------
G-----------------------12-------------12-------------
D-----------------------------------------------------
A-----------------------------------------------------
E-----------------------------------------------------

e--15-13-12----------------15-13-12-----------------
H-----------15-13-12-13-------------15-13-15-13-----
G-----------------------14--------------------------
D-----------------------------------------------------
A-----------------------------------------------------
E-----------------------------------------------------

e--12-10----------------------------------------------
H--------13-12-10----10-12-13-12-10----10-------------
G-----------------12----------------12----12----------
D-----------------------------------------------------
A-----------------------------------------------------
E-----------------------------------------------------

Jedna gitara svira ovo dok druga gitara razlaze
Am C G Am, Am C G 2x
 Komentari:
Poslao :: Gost


Poslao :: Gost
neznam bas
Poslao :: Gost_Dejan 89
nije lose uz malo dorade bilo bi skroz ok al uopste nije lose,
Poslao: Crni_Leptir | Komentara: 3 | Glasova: 0 | Ocjena: x | Print