z.joksimovic - lud i ponosan

Poslao: SuperStar_18 | Komentara: 4 | Glasova: 3 | Ocjena: 3

Snimi fajl: z.joksimovic - lud i ponosan.gp4

neophodno :: TuxGuitar »» http://www.tuxguitar.pw/ || Guitar Pro »» http://www.guitar-pro.com
 Komentari:
Poslao :: NEred_source
Ne moze vise od 2+
Poslao :: SuperStar_18
Nisam imao vise zivaca pravit ovu pjesmu,preteska je,tako da sam odlucio da prestanem i da je posaljem...Solo ko skine svaka mu cast...
Poslao :: NEred_source
brate ne valja ti ovo skoro nista, a evo ti solo




Solo Guitar
                                                                           
E||-----------------------------------|-----------------------------------|
B||--8-----7-----8-----10-----8---7---|--8-----7-----10-----8-----7---8---|
G||----7-7---7-7---7-7----7-7---7---7-|----7-7---7-7----7-7---7-7---7---7-|
D||-----------------------------------|-----------------------------------|
A||-----------------------------------|-----------------------------------|
E||-----------------------------------|-----------------------------------|


                                                                       
------------------------------------------|---------------------------|
------------------------------------------|---------------------------|
--14/12-12-12/11-11-11/9-9-9/7-7-7/9-9/11-|--11/9-9-9/7-7-7/9~--------|
------------------------------------------|---------------------------|
--12/10-10-10/9--9--9/-7-7-7/5-5-5/7-7/9--|--9/-7-7-7/5-5-5/7~--------|
------------------------------------------|---------------------------|


                                                                        
-----------------------------------|-----------------------------------|
--8-----7-----8-----10-----8---7---|--8-----7-----10-----8-----7---8---|
----7-7---7-7---7-7----7-7---7---7-|----7-7---7-7----7-7---7-7---7---7-|
-----------------------------------|-----------------------------------|
-----------------------------------|-----------------------------------|
-----------------------------------|-----------------------------------|


                                                                       
-----------------------------|----------------------------------------|
--7--------------------------|----------------------------------------|
----9-9-9~-7-----------16-16-|--16/14-14-14--12--12-12/11-11-11--9--7-|
-------------7-9~------------|----------------------------------------|
-----------------------14-14-|--14/12-12-12--10--10-10/9--9--9---7--5-|
-----------------------------|----------------------------------------|


             
-----------||
-----------||
--9--------||
-----------||
--7--------||
-----------||

Poslao :: Gost_vesh motka
Nije lose,ali bas je jako slabo odradjen,potrudi se malo vise!Pozz
Poslao: SuperStar_18 | Komentara: 4 | Glasova: 3 | Ocjena: 3