balasevic - miholjsko leto (uvod+solo)

Poslao: popvuk | Komentara: 0 | Glasova: 0 | Ocjena: x | Print
Uvod :
-|-|-6/8-6------3/6-6-5----------------------------------|-------------------
-|-|-------5------------3----------5--8--5-6--5-6-8-/10--|--------------------
-|-|----------------------------6------------------------|--------------------
-|-|-------------------------7---------------------------|--------------------
-|-|-----------------------------------------------------|--------------------
-|-|-----------------------------------------------------|--------------------


---6/8--6----3/6--5-8x--------8-6h8p6--------------------|-|-----------------
-----------5------------6---------------5--6----5---------|-|-----------------
-----------------------7---------------------------7------|-|-----------------
----------------------------------------------------------|-|-----------------
----------------------------------------------------------|-|-----------------
----------------------------------------------------------|-|-----------------

Solo (uvod + tab):

-|-|-----10-8-------------------------------------------------------8---------
-|-|--10-------11--11-10-11-13-13/15-13---------------8-----8-9-11----11------
-|-|------------------------------------12-10-9-----9---10--------------------
-|-|---------------------------------------------10---------------------------
-|-|--------------------------------------------------------------------------
-|-|--------------------------------------------------------------------------


------------------------|------------7----------------------------------------
---10-8------10-8-------|--------7-----10-8h10p8-7-8--10/12-------------------
--------10---------10-9-|---8--9----------------------------------------------
------------------------|-9---------------------------------------------------
------------------------|-----------------------------------------------------
------------------------|-----------------------------------------------------

-|-|-----10-8-------------------------------------------------------8---------
-|-|--10-------11--11-10-11-13-13/15-13---------------8-----8-9-11----11------
-|-|------------------------------------12-10-9-----9---10--------------------
-|-|---------------------------------------------10---------------------------
-|-|--------------------------------------------------------------------------
-|-|--------------------------------------------------------------------------


------------------------|-----------------|-|
---10-8------10-8-------|-----7-8---------|-|
--------10---------10-9-|---8-------8-9---|-|
------------------------|-9---------------|-|
------------------------|-----------------|-|
------------------------|-----------------|-|


Poslao: popvuk | Komentara: 0 | Glasova: 0 | Ocjena: x | Print