haris dzinovic - ostaricu, necu znati

Poslao: Johnny035 | Komentara: 3 | Glasova: 0 | Ocjena: x | Print
Haris Dzinovic - Ostaricu, Necu Znati
Transkripcija: Johnny035
14.09.2012.

Album: “Ostaricu, necu znati“ (1989.) - Diskoton
Muzika & aranzman: Aleksandar - Futa Radulovic
Tekst: Marina Tucakovic

Uvod:
|E    |A    |E    |E    |H7    |E    |E    |

E           A E
Zavoljeh te ludo
A          H7      E
Cini mi se od rodjenja
E          A  E
Ljubav kao tajna
A        H7    E
Zivi kao uspomena

Ref. (2x)
A
Ostaricu, necu znati,
E
da l' ces za mnom zaplakati
H7          E
k’o ja za tobom.

Veza:
|A    |A    |A    |E    |E    |E    |H    |H7    |E    |E    |

E          A E
Pjevale bi usne,
A        H7     E
ali nece moja dusa.
E          A E
Cak ni ona vise,
A         H7       E
nece vise da me slusa.

Ref. (2x)
A
Ostaricu, necu znati,
E
da l' ces za mnom zaplakati
H7          E
k’o ja za tobom.

Solo gitara:
  E                A              E                A
                                                             _____
E|----------------|--------------|----------------|--------------------|
H|------------12--|12/b14--------|12/14/12--------|12/b14----12--------|
G|13--13--14------|--------------|----------------|-------------14-13--|
D|----------------|--------------|----------------|--------------------|
A|----------------|--------------|----------------|--------------------|
E|----------------|--------------|----------------|--------------------|

  H7               E          E
                   ____________
E|----------------|----------|----------|
H|------------12--|----------|----------|
G|11--13--14------|13--------|13--------|
D|----------------|----------|----------|
A|----------------|----------|----------|
E|----------------|----------|----------|

  E                A              E                A
                                                             _____
E|----------------|--------------|----------------|--------------------|
H|------------12--|12/b14--------|12/14/12--------|12/b14----12--------|
G|13--13--14------|--------------|----------------|-------------14-13--|
D|----------------|--------------|----------------|--------------------|
A|----------------|--------------|----------------|--------------------|
E|----------------|--------------|----------------|--------------------|

  H7               E          E7
E|----------------|----------|--------------|
H|------------12--|----------|12/b17--------|
G|11--13--14------|13--------|--------------|
D|----------------|----------|--------------|
A|----------------|----------|--------------|
E|----------------|----------|--------------|

Ref. (2x)
A
Ostaricu, necu znati,
E
da l' ces za mnom zaplakati
H7          E
k’o ja za tobom.

H      H7   E
K’o ja za tobom...

 Komentari:
Poslao :: Johnny035
U XNovostima nema nijedne verzije, a u arhivi su u drugom tonalitetu. Ovo je originalni tonalitet.
Poslao :: Sat-Ok
Da, čuveni E u ovoj pesmi. Baš čudno da drugi radovi daju drugi tonalitet. Hvala Johhny035!
Poslao :: Johnny035
Svuda je F-dur, zato što su takve uživo verzije. Naravno svima je lakše da hvataju akorde u F-duru (D-molu). Uglavnom su verzije uživo niže od originala, eto, ovde je original niži od svih verzija uživo.
Poslao: Johnny035 | Komentara: 3 | Glasova: 0 | Ocjena: x | Print