brkovi - ludi vukovi

Poslao: Morzel | Komentara: 0 | Glasova: 0 | Ocjena: x | Print
Izvodjac: Brkovi
Pesma: Ludi vukovi
Transkribovao: Momcilo Petrovic (Morzel)

Uvod: A5

A5         G5      F5          C5-G5
Dok Gospic spava i prekriva je tama
A5           G5      F5          C5---G5
oni iz mraka izlaze, zvuk motora cuje se
A5          G5      F5        C5---G5
s vjetrom u ledima, gospodari spokoja
A5          G5      F5                 A5
sada glasno dolaze, svakog trnci prolaze

(Ovo je prelaz koji svira druga gitara za vreme poslednjeg A5 u strofi)


-1|--------------------------------------------
-2|--13-13-13--12--13-13-13-13-13-13-13-13-13\-
-3|--14-14-14--12--14-14-14-14-14-14-14-14-14\-
-4|--------------------------------------------
-5|--------------------------------------------
-6|--------------------------------------------


C5                    G5
Pod sretnom zvijezdom rodeni
F5           C5---G5
na asfaltu i prasini
C5         G5
to su Ludi Vukovi
F5           A5
Like i ceste sinovi
C5          G5
Stizu momci odvazni,
F5       C5---G5
hrabri i posteni
C5   G5
Ludi Vukovi
F5           A5
Like i ceste sinovi

Prelaz:

-1|-----------------------------------------------|---------------------
-2|-3/5v---5-6-5p---------------------------------|-3/5v---5-6-5p-------
-3|---------------7v--7-5-5-5-5-5-5-5-5-7br-5p-7v-|---------------7v ---
-4|-----------------------------------------------|---------------------
-5|-----------------------------------------------|---------------------
-6|-----------------------------------------------|---------------------


-1|-------------------------------------
-2|-------------------------------------
-3|-555-4-5-7-5-4-----------------------
-4|---------------7-7-7-7-7-7-5-5-5-7v--
-5|-------------------------------------
-6|-------------------------------------


Pod Velebitom golemim, zastava se vijori
Ludi Vuk sad ponovo u daljinu odlazi
ne mogu mu nista, oluje ni potresi
Ludi vuk spreman je svakom zlu da prkosi

Pod sretnom zvijezdom rodeni
na asfaltu i prasini
to su Ludi Vukovi
Like i ceste sinovi
Stizu momci odvazni,
hrabri i posteni
Ludi Vukovi
Like i ceste sinovi

H-Hammer on
P-Pull off
B-Bendig
R-Release bend
Br-Pri istom okidanju podici i spustiti zicu (Bend + release)
/-Slide up
\-Slide down
V-Vibrato
Poslao: Morzel | Komentara: 0 | Glasova: 0 | Ocjena: x | Print