brkovi - mala

Poslao: Morzel | Komentara: 0 | Glasova: 0 | Ocjena: x | Print
Izvodjac: Brkovi
Pesma: Mala
Transkribovao: Momcilo Petrovic (Morzel)

Uvod:

*Prvi deo (Deo do uspravne pregrade) se ponavlja dva puta, pa onda sledi ostatak

-1|----------------------------------|----------------------------------------
-2|----------------------------------|----------------------------------------
-3|--5-4---5--4---5--4---5-45h-------|-5-4---5--4---5--4---5--4---4/7---------
-4|------7------7------7-------7-5---|-----7------7------7------7-------------
-5|----------------------------------|----------------------------------------
-6|----------------------------------|----------------------------------------


-1|---------------------------------------------------------------------------
-2|-5v-5---5-6-5--------------------------------------------------------------
-3|--------------7--4-4-5-45h-------------------------------------------------
-4|---------------------------7-5---------------------------------------------
-5|---------------------------------------------------------------------------
-6|---------------------------------------------------------------------------

A5
Jednom pobjegnes
F5
pa se opet vratis
A5
malo me volis
F5
a malo bi da patim

Ref.
A5
Snove svoje
F5
da si meni dala
C5
gdje bi onda
        G5    C5-G5
bio nam kraj, mala

Opet varas
a kazes da si vjerna
s tobom sam imao
tisucu problema

Ref.

Uvod

Prvo napadnes
pa se onda branis
malo me volis
pa mi sve uskratis

Ref.

Opet varas
a kazes da si vjerna
u sobi jos je
miris tvog parfema

Ref.

Solo:


-1|---------------------------------------------------------------------------
-2|---------------------------------------------------------------------------
-3|---------------------------------------------------------------------------
-4|-9/10-10-10-10/12-12-12--12\10-10-10--10\9-10\9-10\9-7-7-------------------
-5|---------------------------------------------------------------------------
-6|-7/8--8--8--8/10--10-10--10\8--8--8---8\7--8\7--8\7--5-5-------------------


-1|------------|------------------------5-------------------------------------
-2|------------|-----------5-8-8----------8-8b-8-5----5-8-5---5---------------
-3|-5---5------|--5---5-7b(bbb)7r-5-7v-------------7b-------7---7-5-7br/17----
-4|---7---7--7-|----7---------------------------------------------------------
-5|------------|--------------------------------------------------------------
-6|------------|--------------------------------------------------------------


-1|-17-15p---15-17--15p-----15-17h----15-17-15b-15-12-----12-15-12p-----------
-2|-------17------------17---------17-----------------15b-----------15-13p----
-3|---------------------------------------------------------------------------
-4|---------------------------------------------------------------------------
-5|---------------------------------------------------------------------------
-6|---------------------------------------------------------------------------


-1|------------15--------------------|----------------------------------------
-2|-15-13p-15b----15r-13p-15-13p-12v-|--12-13-12p--13-15h-13p-12-13-----------
-3|----------------------------------|----------------------------------------
-4|----------------------------------|----------------------------------------
-5|----------------------------------|----------------------------------------
-6|----------------------------------|----------------------------------------


-1|---------------------------------------------------------------------------
-2|--15-13p-15-13p-12v--------------------------------------------------------
-3|---------------------------------------------------------------------------
-4|---------------------------------------------------------------------------
-5|---------------------------------------------------------------------------
-6|---------------------------------------------------------------------------

*Prvi deo (Deo do uspravne zagrade) se ponavlja tri puta, pa onda sledi ostatak

-1|----------------------------------|----------------------------------------
-2|----------------------------------|----------------------------------------
-3|-9-7----9v-7----9v-7----9v-7----7-|-9-9--9-10-9-7v-9-7---------------------
-4|-----10------10------10------10---|--------------------10-9-7--------------
-5|----------------------------------|----------------------------------------
-6|----------------------------------|----------------------------------------

H-Hammer on
P-Pull off
B-Bendig
R-Release bend
Br-Pri istom okidanju podici i spustiti zicu (Bend + release)
/-Slide up
\-Slide down
V-Vibrato
(bbb)-Ovom oznakom sam zeleo da obelezim da bending i dalje traje

Poslao: Morzel | Komentara: 0 | Glasova: 0 | Ocjena: x | Print