hari mata hari - bas ti lijepo stoje suze

Poslao: Johnny035 | Komentara: 7 | Glasova: 0 | Ocjena: x | Print
Hari Mata Hari - Bas Ti Lijepo Stoje Suze
Transkripcija: Johnny035 & Miroslav Obradovic
01.03.2015.
Home: 2akordi.net

Album: "Bas ti lijepo stoje suze" (2001.) - Croatia Records, Hi-Fi, Grand Production
Muzika & aranzman: Hari Varesanovic
Tekst: Fahrudin Pecikoza
YT: https://www.youtube.com/watch?v=YLBrxWD1xKE

Uvod:
  Hm         G           D              A
  \ / \ / /  \ \ / \ /
  ___ ___    _ ___ _     __________          _______
  ___ ___    _ ___ _     ____                  _____
E|7-7-7-7-7--3-3-3-3-3--|---------------------------|
H|7-7-7-7-7--3-3-3-3-3--|---------------------------|
G|7-7-7-7-7--4-4-4-4-4--|---9-11-12-11-9----9-11-12-|
D|9-9-9-9-9--5-5-5-5-5--|12--------------12---------|
A|9-9-9-9-9--5-5-5-5-5--|---------------------------|
E|7-7-7-7-7--3-3-3-3-3--|---------------------------|

  Hm    G    D          A
             ____   ___       ___
             _      _         ___
E|----------|--10-9---7-9-----7-9-|
H|----------|7------8------10-----|
G|11--------|---------------------|
D|----------|---------------------|
A|----------|---------------------|
E|----------|---------------------|

  Hm   G      D     A       Hm
                        ___
E|7----------|-------------|-----...
H|-------7-9-|11----9--7-6-|4----...
G|-----------|-------------|-----...
D|-----------|-------------|-----...
A|-----------|-------------|-----...
E|-----------|-------------|-----...
                            Zauvijek da odem...

Hm       G        Em      F#
Zauvijek da odem, to ne mogu
Hm      G          F#7
Tebi se vracam k'o starom razlogu.
Hm       G       Em         F#
Zatvorim oci jer poznam taj put
Hm       G       F#7
Ne bojim se, ali drhtim k'o prut.

    A         E
Valovi, nocas Mjesec slomit ce.
    Hm             G       C#7
Dolazim, jer volim te i previse.

Ref.
F#7    Hm                     Em
Bas ti lijepo stoje suze, ali nemoj plakati.
      A                     Hm    F#7
Zasto bisere u blato, nocas bacas ti?
       Hm                    Em
Kad bi kisa bila tisa, ti bi cula korak moj
    F#    F#7         Hm     G
kao nekad kad sam bio tvoj.

Veza:
  D              A             Hm    G
  __________          _______
  ____                  _____
E|---------------------------|----------|
H|---------------------------|----------|
G|---9-11-12-11-9----9-11-12-|11--------|
D|12--------------12---------|----------|
A|---------------------------|----------|
E|---------------------------|----------|

  D          A          Hm   (N.C.)
  ____   ___       ___
  _      _         ___
E|--10-9---7-9-----7-9-|7--------|
H|7------8------10-----|---------|
G|---------------------|---------|
D|---------------------|---------|
A|---------------------|---------|
E|---------------------|---------|

Hm       G        Em      F#
Zauvijek da odem, to ne mogu
Hm      G          F#7
Tebi se vracam k'o starom razlogu.
Hm       G       Em          F#
Zivot je vjetar, a covjek je list.
Hm      G     F#7
Niko na kraju ne ostane cist.

    A         E
Valovi, nocas Mjesec slomit ce.
    Hm             G       C#7
Dolazim, jer volim te i previse.

Ref.(2x)
F#7    Hm                     Em
Bas ti lijepo stoje suze, ali nemoj plakati.
      A                     Hm    F#7
Zasto bisere u blato, nocas bacas ti?
       Hm                    Em
Kad bi kisa bila tisa, ti bi cula korak moj
    F#    F#7         Hm     F#7 (Hm)
kao nekad kad sam bio tvoj.

Solo:
 ... Hm   Em           F#m          Hm
                 _____        ____        ___________
     ___         _____        ____        _____
E|...----|-------------------------|------14-14----------|
H|...----|-------------10----------|------------15-14----|
G|...7-9-|12-12--11-12-----12-11-9-|11-------------------|
D|...----|-------------------------|------------------16-|
A|...----|-------------------------|---------------------|
E|...----|-------------------------|---------------------|

  Hm                   Em
                           __________     ___________
                           ________       _________
E|--------------------|-------------------------------|
H|--------------------|-------------------------------|
G|16--14----16--14----|----14-------------------------|
D|-------16--------16-|17-----17-16-17----14-16-17-14-|
A|--------------------|----------------17-------------|
E|--------------------|-------------------------------|

  F#7                Hm                     F#m
E|------------------|----------------------|----------------------|
H|------------------|----------------------|14---------14---------|
G|------------------|16--14-----16--14-----|----16--14-----16--14-|
D|16---16-14-16--16-|--------16---------16-|----------------------|
A|------------------|----------------------|----------------------|
E|------------------|----------------------|----------------------|

  G                    C#7   F#7
E|--------------------|----------|
H|15--14--------14-15-|14--------|
G|-------16-16--------|----------|
D|--------------------|----------|
A|--------------------|----------|
E|--------------------|----------|
                             Bas ti lijepo stoje suze...

Ref.(2x)
F#7    Hm                     Em
Bas ti lijepo stoje suze, ali nemoj plakati.
      A                     Hm    F#7
Zasto bisere u blato, nocas bacas ti?
       Hm                    Em
Kad bi kisa bila tisa, ti bi cula korak moj
    F#    F#7         Hm     F#7
kao nekad kad sam bio tvoj.

F#7    Hm                    Em
Kad bi kisa bila tisa, ti bi cula korak moj,
    F#    F#7         Hm
kao nekad kad sam bio tvoj.

Kraj: Hm

\ - trzaj nadole
/ - trzaj nagore

 Komentari:
Poslao :: izgubljen


Hm G C#7 F#7
Dolazim, jer volim te i previse.

Ref.
Hm Em
Bas ti lijepo stoje suze, ali nemoj plakati.


Ja bih ovo ovako zapisao. Sad idem da isperem usi sodom! :)
Poslao :: Banderas
Akordi su ovako.

Solo:
... Hm Em F#m Hm
_____ ____ ___________
___ _____ ____ _____
E|...----|-------------------------|------14-14----------|
H|...----|-------------10----------|------------15-14----|
G|...7-9-|12-12--11-12-----12-11-9-|11-------------------|
D|...----|-------------------------|------------------16-|
A|...----|-------------------------|---------------------|
E|...----|-------------------------|---------------------|

Hm H Em
__________ ___________
________ _________
E|--------------------|-------------------------------|
H|--------------------|-------------------------------|
G|16--14----16--14----|----14-------------------------|
D|-------16--------16-|17-----17-16-17----14-16-17-14-|
A|--------------------|----------------17-------------|
E|--------------------|-------------------------------|

F#7 Hm F#m
E|------------------|----------------------|----------------------|
H|------------------|----------------------|14---------14---------|
G|------------------|16--14-----16--14-----|----16--14-----16--14-|
D|16---16-14-16--16-|--------16---------16-|----------------------|
A|------------------|----------------------|----------------------|
E|------------------|----------------------|----------------------|

G C#7 Hm F#7
E|--------------------|----------|
H|15--14--------14-15-|14--------|
G|-------16-16--------|----------|
D|--------------------|----------|
A|--------------------|----------|
E|--------------------|----------|
Bas ti
Poslao :: Johnny035
Izgubljen, u pravu si. Pomerio sam akorde unapred. G ide malo ranije. Ne ispiraj uši, dobro je. ;D

Ja bih ovde stavio H7 umesto H.

Hm H7 Em
__________ ___________
________ _________
E|--------------------|-------------------------------|
H|--------------------|-------------------------------|
G|16--14----16--14----|----14-------------------------|
D|-------16--------16-|17-----17-16-17----14-16-17-14-|
A|--------------------|----------------17-------------|
E|--------------------|-------------------------------|
Poslao :: Banderas


Akordi su ovako.

Solo:
... Hm Em F#7 Hm
_____ ____ ___________
___ _____ ____ _____
E|...----|-------------------------|------14-14----------|
H|...----|-------------10----------|------------15-14----|
G|...7-9-|12-12--11-12-----12-11-9-|11-------------------|
D|...----|-------------------------|------------------16-|
A|...----|-------------------------|---------------------|
E|...----|-------------------------|---------------------|

Hm7 H7 Em
__________ ___________
________ _________
E|--------------------|-------------------------------|
H|--------------------|-------------------------------|
G|16--14----16--14----|----14-------------------------|
D|-------16--------16-|17-----17-16-17----14-16-17-14-|
A|--------------------|----------------17-------------|
E|--------------------|-------------------------------|

F#7 Hm7 F#m
E|------------------|----------------------|----------------------|
H|------------------|----------------------|14---------14---------|
G|------------------|16--14-----16--14-----|----16--14-----16--14-|
D|16---16-14-16--16-|--------16---------16-|----------------------|
A|------------------|----------------------|----------------------|
E|------------------|----------------------|----------------------|

G C#7 Hm F#7
E|--------------------|----------|
H|15--14--------14-15-|14--------|
G|-------16-16--------|----------|
D|--------------------|----------|
A|--------------------|----------|
E|--------------------|----------|
Bas ti
Poslao :: Banderas


Početak sola još je uvijek ovako.
Dalje nek ispravlja onaj tko zna.

E-------/
H-------/
G--9-11-/
D-------/
A-------/
E-------/
Poslao :: izgubljen
@Johnny035. Ma ja ispiram usi zbog izvodjaca. Sa sluhom nemam problema. Sluh mi je jednako nepopravljiv. :)))
Poslao :: Johnny035
Šaljem ispravku. Našao sam još jednu grešku u solaži. Ovde na početku sa se zabrojao oko pragova. Ovaj rad ne bude obrisan.
Poslao: Johnny035 | Komentara: 7 | Glasova: 0 | Ocjena: x | Print